Mighty Mighty Bosstones - The Impression That I Get Chords & Tabs

 

The Impression That I Get Chords & Tabs

Mighty Mighty Bosstones Chords & Tabs

Version: 1 Type: Bass Tab 0 ratings
1 star 2 stars 3 stars 4 stars 5 stars
comments

The Impression That I Get Bass Tab

 Song: "The Impression That I Get" bass tab
 Artist: The Mighty Mighty Bosstones
 Album: Let's Face It
 Transcribed by: Paul Burkey (guitarhero18@hotmail.com)

 Hey everybody! This is my first post, so tell me what you think.

    verse:
    1 + 2 + 3 + 4 +   1 + 2 + 3 + 4 +
 G|-------4---------|------------------|
 D|*----6---------4-|-------6-6-7-6-7-*|
 A|*--7---------6---|-----7-----------*| 
 E|-----------7-----|---9--------------|

     chorus:
     1 + 2 + 3 + 4 +   1 + 2 + 3 + 4 +   1 + 2 + 3 + 4 +
 G|------------------|-----------------|-----------------|
 D|*-----------------|-----------------|-----------------|
 A|*-7-7-7-7-7-7-7-7-|-7-7-7-7-7-7-7-7-|-----------------|
 E|------------------|-----------------|-7-7-7-7-7-7-7-7-|
[ Tab from: http://www.guitartabs.cc/tabs/m/mighty_mighty_bosstones/the_impression_that_i_get_btab.html ]
    1 + 2 + 3 + 4 +   1 + 2 + 3 + 4 +   1 + 2 + 3 + 4 +
 G|-----------------|-----------------|-----------------|
 D|-----------------|-----------------|-----------------|
 A|-----------------|-----------------|-----------------|
 E|-7-7-7-7-7-7-7-7-|-4-4-4-4-4-4-4-4-|-4-4-4-4-4-4-4-4-|


    1 + 2 + 3 + 4 +   1 + 2 + 3 + 4 +   
 G|-----------------|------------------|
 D|-----------------|-----------------*|
 A|-----------------|-----------------*|
 E|-5-5-5-5-5-5-5-5-|-5-5-5-5-5-5-5-5--|

    other part:
    1 + 2 + 3 + 4 +   1 + 2 + 3 + 4 +
 G|-----------------|------------------|
 D|*----------------|-----------------*|
 A|*----------------|-----------------*|
 E|-2---------------|/5----------------|

 That's it. It's a great song, so enjoy!

Comments