Mighty Mighty Bosstones - So Sad To Say Chords & Tabs

 

So Sad To Say Chords & Tabs

Mighty Mighty Bosstones Chords & Tabs

Version: 1 Type: Tab 0 ratings
1 star 2 stars 3 stars 4 stars 5 stars
comments

So Sad To Say Tab

Allright, this is my way to play So Sad To Say, whitch is the right way! the other guy who did this like totally blew it. i dont know what the hell hes smoking. (sorry dude) Anyways here it is...

INTRO

                                 [----------2x----------]
E------------------------------------------------------------------
B-----3---333-1h3p1---1-------3---3h6p3-4-3--3h4p3-6-4-3-----------
G---3-3-------------3---3---3-3------------3-----------------------
D---3-----------------------3--------------------------------------
A------------------------------------------------------------------
E------------------------------------------------------------------
 
CHORDS

play these chords power chord style...
A#, F, G, fill one (fist time only) or B# (second time and chorus)

these chords are played for the verses and the chorus

FILL 1
[ Tab from: http://www.guitartabs.cc/tabs/m/mighty_mighty_bosstones/so_sad_to_say_tab.html ]
E---------------------------------------------
B-3h6p3-4-3--3h4p3-6-4-3----------------------
G----------3----------------------------------
D---------------------------------------------
A---------------------------------------------
E---------------------------------------------

thats the most of the song, what i missed im sure you could try and figure it out with the stuff i gave you. 

any questions? email me at otis18@excite.com

BBBB   OOOO   SSSSS  SSSSS TTTTTTT  OOOO  N   N EEEE  SSSSS   
B   B O    O  S      S        T    O    O N   N E     S       
B   B O    O  S      S        T    O    O NN  N E     S       
BBBB  O    O  SSSSS  SSSSS    T    O    O N N N EEEE  SSSSS   
B   B O    O      S      S    T    O    O N  NN E         S   
B   B O    O      S      S    T    O    O N   N E         S   
BBBB   OOOO   SSSSS  SSSSS    T     OOOO  N   N EEEEE SSSSS
Comments