Mighty Mighty Bosstones - So Sad To Say Chords & Tabs

 

So Sad To Say Chords & Tabs

Mighty Mighty Bosstones Chords & Tabs

Version: 1 Type: Bass Tab 0 ratings
1 star 2 stars 3 stars 4 stars 5 stars
comments

So Sad To Say Bass Tab

Artist: The Mighty Mighty BossToneS
Song: So Sad to Say
Album: Pay Attention

> = strum
 = let it ring

INTRO

G -----------------------------------------------------------------
D -----------------------------------------------------------------
A 1> ----------------------6>------1>------------------------------
E --------1>------3>-------------------------1>-------3>------1>---

VERSE

G---------------------------------------------------------------
D---------------------------------------------------------------
A 1>----------------------6>------1>--------------------------6>
E ---------1>------3>-----------------------1>------3>----------
[ Tab from: http://www.guitartabs.cc/tabs/m/mighty_mighty_bosstones/so_sad_to_say_btab.html ]
G ------------------------------------
D ------------------------------------
A ----88-888-66-666--------------66-66
E ----------------------33-333--------

CHORUS

Just as the first line of the verse, but in an other "rythm"


During the slow part:

G --------------------------------------------------------------------
D --------------------------------------------------------------------
A 1-------------------------6------1--------------------6-5-6-5-5-8
E ----------1-------3----------------------1------3---------------



INTRO x1
VERSE x1
CHORUS x1
VERSE x1
CHORUS x1
INTRO x1
SLOW PART x1
CHORUS x1
INTRO x1 (finish on A1)


I hope everybody could understand it

Tabbed by Ingramosch
Comments