Mighty Mighty Bosstones - Seven Ways To Sunday Chords & Tabs

 

Seven Ways To Sunday Chords & Tabs

Mighty Mighty Bosstones Chords & Tabs

Version: 1 Type: Tab

Seven Ways To Sunday Tab

Intro (2nd part of chorus)
1|-x-x--x----------|----------|----------|
2|-x-x--x----------|----------|----------|
3|-x-x--x----------|----------|----------|
4|-x-x--x-9-9-7--7-|----------|----------|
5|-x-x--x-9-9-7--7-|-----5----|----------|
6|-x-x--x-7-7-5--5-|-5-7---7~-|-5-2-0-2~-|

Verse (1st part of chorus)
1|--------------------|
2|--------------------|
3|--------------------|
4|-9-9--7-7--7-7--9-9-|
5|-9-9--7-7--7-7--9-9-|
6|-7-7--5-5--5-5--7-7-|
[ Tab from: http://www.guitartabs.cc/tabs/m/mighty_mighty_bosstones/seven_ways_to_sunday_tab.html ]