Mighty Mighty Bosstones - Royal Oil Chords & Tabs

 

Royal Oil Chords & Tabs

Mighty Mighty Bosstones Chords & Tabs

Version: 1 Type: Tab 0 ratings
1 star 2 stars 3 stars 4 stars 5 stars
comments

Royal Oil Tab

   
Song:   royal oil
Artist:   the mighty mighty bosstones
Tabbed by:  Jeb

Intro
    w   w   w   w   e  e q e e e e
E:|---|---|---|---|-2\--------------|
B:|---|---|---|---|-3\--------------|
G:|---|---|---|---|-4\--R-R-----2-4-|
D:|-R-|-R-|-R-|-R-|-4\------2-4-----|
A:|---|---|---|---|-----------------|
E:|---|---|---|---|-----------------|


Chorus                                  (3x)
      e e e e e e e e   e e e e e e e e     
E:||----5---5---5---5-|---7---7---7---7--||
B:||----5---5---5---5-|---7---7---7---7--||
G:||o-----------------|-----------------o||
D:||o-R---R---R---R---|-R---R---R---R---o||
A:||------------------|------------------||
E:||------------------|------------------||


Bridge 1
  e e e e e e e e   e e e e e e e e   e e e e e e e e   e e e e e e e e
E:|---5---5---4---4-|---2---2---2---2-|---5---5---4---4-|---9---9---9---4/-|
B:|---7---7---5---5-|---3---3---3---3-|---7---7---5---5-|---9---9---9---4/-|
G:|---7---7---6---6-|---4---4---4---4-|---7---7---6---6-|---------------5/-|
D:|-R---R---R---R---|-R---R---R---R---|-R---R---R---R---|-R---R---R---R----|
A:|-----------------|-----------------|-----------------|------------------|
E:|-----------------|-----------------|-----------------|------------------|


[ Tab from: http://www.guitartabs.cc/tabs/m/mighty_mighty_bosstones/royal_oil_tab.html ]
Verse                                      (4x)->leave out () 2nd-3rd times                        (3X)
        e  e e e e e e e   e e e e e e e e                       e e e e e e e e   e e e e e e e e     e e e e e e e e   e e e e e e e e
E:||--(/5)-5---5---5---5-|---7---7---7---7--||               ||----5---5---4---4-|---2---2---2---2--||---5---5---4---4-|---9---9---9---4/-|
B:||--(/5)-5---5---5---5-|---7---7---7---7--||               ||----7---7---5---5-|---3---3---3---3--||---7---7---5---5-|---9---9---9---4/-|
G:||o-(/6)---------------|-----------------o|| ==========\_  ||o---7---7---6---6-|---4---4---4---4-o||---7---7---6---6-|---------------5/-|
D:||o--------R---R---R---|-R---R---R---R---o|| ==========/   ||o-R---R---R---R---|-R---R---R---R---o||-R---R---R---R---|-R---R---R---R----|
A:||---------------------|------------------||               ||------------------|------------------||-----------------|------------------|
E:||---------------------|------------------||               ||------------------|------------------||-----------------|------------------|



Chorus

Verse

Bridge 1

Bridge 2(trombone solo)
                             
        3				  (4x)
     _______        
     q  q  q             h     e e e e        e e e e e e e e   e e e e e e e e   e e e e e e e e   e e e e e e e e
E:||-------------------|-------------------||---5---5---4---4-|---2---2---2---2-|---5---5---4---4-|---9---9---9---9-|
B:||-------------------|-------------2-4---||---7---7---5---5-|---3---3---3---3-|---7---7---5---5-|---9---9---9---9-|
G:||o------------------|---R-----2-4------o||---7---7---6---6-|---4---4---4---4-|---7---7---6---6-|-----------------|
D:||o------------------|------------------o||-----------------|-----------------|-----------------|-----------------|
A:||---0--0--0~~~~~~~~~|-------------------||-R---R---R---R---|-R---R---R---R---|-R---R---R---R---|-R---R---R---R---|
E:||-------------------|-------------------||-----------------|-----------------|-----------------|-----------------|

Chorus

Bridge 1-->(4x)

End on A chord

e= eighth note				q= quarter note
h= half note				w= whole note
 3
___ = triplet(value indicated)		R= rest(length indicated)


questions e-mail:  mightie_mongoose@yahoo.com		
		


Comments