Mighty Mighty Bosstones - Royal Oil Chords & Tabs

 

Royal Oil Chords & Tabs

Mighty Mighty Bosstones Chords & Tabs

Version: 3 Type: Bass Tab 0 ratings
1 star 2 stars 3 stars 4 stars 5 stars
comments

Royal Oil Bass Tab

   
Song:  royal oil
Artist:   the mighty mighty bosstones
	
	
	Intro/Verses
     e e  e  e e e e e      e e  e e e e e e       e e  e  e e e e e     w 
G:|----------------------|----------------------|---------------------|-----|
D:|----------------------|----------------------|---------------------|-----|
A:|--0-0--R--0-2-4-2-0---|--2-2--R--2-4-2-0-2---|--0-0--R--0-2-4-2-0--|--2--|
E:|----------------------|----------------------|---------------------|-----|


	Chorus  			         (3x)	
       e e  e  e e e e e      e e  e  e e e e e        e e e e e e e e      e e  e  e e e e e     e e e e e e e e
G:||----------------------|-----------------------||---------2-------2---|---------------------|--------2-------2--|           
D:||o---------------------|----------------------o||---0-0-4-------4-----|---------------------|--0-0-4-------4----|
A:||o--0-0--R--0-2-4-2-0--|---2-2--R--2-4-2-0----o||-----------4-4-------|--2-2--R--4-2-0---0--|----------4-4------|
E:||----------------------|-------------------2---||---------------------|----------------2----|-------------------|

    e e e e e e e e
G:|-----------------|
D:|-2-2-2-2-2-2-2-2-|
A:|-----------------|
E:|-----------------|


	Bridge (trombone solo)
      
       3
     _____              (4x)
     q q q   h    w 
G:||--------------|------||
D:||o-------------|-----o||
A:||o--0-0-0---0--|-4---o||
E:||--------------|------||

[ Tab from: http://www.guitartabs.cc/tabs/m/mighty_mighty_bosstones/royal_oil_btab_ver_3.html ]
	END Chorus                              (3x)
       e e  e  e e e e e     e e  e  e e e e e  
G:||----------------------|----------------------||
D:||o---------------------|---------------------o||
A:||o--0-0--R--0-2-4-2-0--|--2-2--R--2-4-2------o||
E:||----------------------|----------------0-2---||

     e e e e e e e e     e e  e  e e e e e     e e e e e e e e    e e e e e e e e
G:|--------2-------2--|---------------------|--------2-------2--|-----------------|
D:|--0-0-4-------4----|---------------------|--0-0-4-------4----|-2-2-2-2-2-2-2-2-|
A:|----------4-4------|--2-2--R--4-2-0---0--|----------4-4------|-----------------|
E:|-------------------|----------------2----|-------------------|-----------------|


                          1,2,3                    4
                        /=======================/\===========
       e e e e e e e e     e e  e  e e e e e       e e  e  e e e e e    w
G:||---------2-------2--|----------------------||---------------------|------|
D:||o--0-0-4-------4----|---------------------o||---------------------|------|
A:||o----------4-4------|--2-2--R--4-2-0---0--o||--2-2--R--4-2-0------|-0----|
E:||--------------------|----------------2-----||----------------0-2--|------|


  e= eighth note		q= quarter note
  h= half note			w= whole note
                                
   3                           
 _____ = triplet 		R= rest (length indicated)

tabbed completely by:  Jeb M. Carter
any questions e-mail at:  mightie_mongoose@yahoo.com
Comments