Mighty Mighty Bosstones - Riot On Broad Street Chords & Tabs

 

Riot On Broad Street Chords & Tabs

Mighty Mighty Bosstones Chords & Tabs

Version: 2 Type: Tab 0 ratings
1 star 2 stars 3 stars 4 stars 5 stars
comments

Riot On Broad Street Tab

song: Riot on Broad Street
Artist: the Mighty Mighty Bosstones
Album: Pay Attention!

I am sure that this tab is mostly accurate. Email me at bosstoner737@hotmail.com with any questions

Intro/Riff (2x)

E|----------------------------------------10-12-|
B|12-10----10h12-13-13-13-12-10--12-10----------|
G|------12------------------------------12------|
D|----------------------------------------------|
A|----------------------------------------------|
E|----------------------------------------------|


Verse (2x)

E|----------------------------------------|
B|----------------------------------------|
G|--9-9-9-9-------------9-9-9-9--------7--|
D|--9-9-9-9-10-10-10-10-7-7-7-7-10-10--5--|
A|--7-7-7-7--8--8--8--8-7-7-7-7--8--8--5--|
E|-----------8--8--8--8----------8--8-----|


Pre-Chorus (4x)

E|----------------------|
B|----------------------|
G|---9----7----5----5---|
D|--9-9--7-7--5-5--5-5--|
A|-7----5----3----3-----|
E|----------------------|

Chorus (4x)
[ Tab from: http://www.guitartabs.cc/tabs/m/mighty_mighty_bosstones/riot_on_broad_street_tab_ver_2.html ]
E|------------|
B|------------|
G|----7--9--5-|
D|-7--7--9--5-|
A|-7--5--7--3-|
E|-5----------|


Post-Chorus (4x)
let ring

E|------------------------------------------------|
B|------------------------------------------------|
G|-9----------------------------------------------|
D|-9-----------------------------10---------------|
A|-7------------------------------8---------------|
E|--------------------------------8---------------|

   if im going down hell im not going down alone...

Outro (2x)
                                          {---2nd time------|
E|-----------------------------------------10-12--10--------|
B|-12-10----10h12-13-13-13-12-10--12-10--------------10-12--|
G|-------12-----------------------------12------------------|
D|----------------------------------------------------------|
A|----------------------------------------------------------|
E|----------------------------------------------------------|


Song Structure:

Intro
Verse
Pre-Chorus
Verse
Pre-Chorus
Chorus
Riff
Verse
Pre-Chorus
Chorus
Post-Chorus
Outro
Comments