Mighty Mighty Bosstones - Nevermind Me Chords & Tabs

 

Nevermind Me Chords & Tabs

Mighty Mighty Bosstones Chords & Tabs

Version: 1 Type: Bass Tab 0 ratings
1 star 2 stars 3 stars 4 stars 5 stars
comments

Nevermind Me Bass Tab

   
Song:Nevermind Me
Artist: Mighty Mighty Bosstones
Album: Let's Face It
Bass TAb
             Tabbed by Rafael Amaral(ramaral@net.em.com.br)
Intro:
G----------------------------------------------
D----------------------------------------------
A---4--4-4-4-----------------------------------
E------------5-5-5-5-5---2-2-2-2-2---5-5-5-5-5-
Verse:
   C#m        - A         - F#m       -  G#
G---------------------------------------------------------
D-------2------------2------------2----------2--1---------
A--4-4----4-------4----4-------4-----4--------------4-4---
E---------------5-----------2-------------4---------------
[ Tab from: http://www.guitartabs.cc/tabs/m/mighty_mighty_bosstones/nevermind_me_btab.html ]
Chorus:
G---------------------------------------------
D---------------------------------------------
A---------------------------2-2-2-2-2-2-2-----
E--2-2-2-2-2-2-2-2---0-0-0--------------------

Bridge 1:(And I feel better in the morning...)
G---------------------------------------
D----------2-2-2------------------------
A--0-0-0---------2-2-2-2-2--2-2-2-2-2-2-
E---------------------------------------

Bridge 2:(In the End of the Song)
G-----------------------------------------
D-----------------------------------------
A--4-4-4-4--------------------------------
E-----------5-5-5-5---2-2-2-2--4-4-4-4----

Intro(2x)
Verse
Chorus
Bridge 1
Verse
Chorus
Bridge 1
Bridge 2

My e-mail is ramaral@net.em.com.br



Comments