Mighty Mighty Bosstones - Hope I Never Loose My Wallet Chords & Tabs

 

Hope I Never Loose My Wallet Chords & Tabs

Mighty Mighty Bosstones Chords & Tabs

Version: 1 Type: Tab 0 ratings
1 star 2 stars 3 stars 4 stars 5 stars
comments

Hope I Never Loose My Wallet Tab

   
Artist: The Mighty Mighty Bosstones
Song: Hope I Never Loose My Wallet
Album: Devils Night Out
Tabbed By: Ade Percival
E-Mail: internetdatingsuperstud405@hotmail.com

Intro(Pt1)
e|-22-2---2-2---2-|
B|-33--3-3-3-3-3--|
G|-22---2-----2---|
D|----------------|
A|----------------|
E|----------------|
After this hit the D twice.

Intro(Pt2)
e|---------------------|
B|-7-5-5-----5-7-5-7-5-|
G|----7-7-4-7----------|
D|---------------------|
A|---------------------|
E|---------------------|

Verse(Pt1)
e|-5555-33-55-|
B|-7777-44-66-|
G|-7777-55-77-|
D|------55-77-|
A|------------|
E|------------|

Chorus(Pt1)
e|-5-5-5-5-5-5-5-5-|
B|-7-7-7-7-7-7-7-7-|
G|-7-7-7-7-7-7-7-7-|
D|-----------------|
A|-----------------|
E|-----------------|

Chorus(Pt2)
e|-------------------------|
B|-------------------------|
G|-77777-------------------|
D|-77777-77777-55555-77777-|
A|-55555-77777-55555-77777-|
E|-------55555-33333-55555-|
[ Tab from: http://www.guitartabs.cc/tabs/m/mighty_mighty_bosstones/hope_i_never_loose_my_wallet_tab.html ]
Verse(Pt2)
e|-55555-55555-33333-55555-|
B|-77777-55555-33333-55555-|
G|-77777-66666-44444-66666-|
D|-------77777-55555-77777-|
A|-------------------------|
E|-------------------------|

Solo
e|------------------------------12/14-12-10-12-10-10-15-14-12-10-12-10-10-|
B|-------------8----------------------------------------------------------|
G|-----5h7-7/9b-9-5/7-9\7\5/7\5-------------------------------------------|
D|-5h7--------------------------------------------------------------------|
A|------------------------------------------------------------------------|
E|------------------------------------------------------------------------|

The solo is not 100% but its more or less it.

Intro(Pt1)(x5)
Intro(Pt2)(x4)
Verse(Pt1)(x4)
Chorus(Pt1)(x1)
Chorus(Pt2)(x2)
Verse(Pt2)(x2)
Verse(Pt1)(x4)
Chorus(Pt1)(x1)
Chorus(Pt2)(x2)
Verse(Pt2)(x2)
Chorus(Pt1)(x1)
Solo(x1)
Chorus(Pt1)(x1)
Chorus(Pt2)(x2)

Thats it. You should check out the other bosstones tabs I did for 'Where'd You Go?' and 
The Sun Away'. Also like i have put on these other tabs, if someone could post a correct 
for 'Someday I Suppose' that would be great. Thanks.              Ade
Comments