Mighty Mighty Bosstones - Devils Nite Out Chords & Tabs

 

Devils Nite Out Chords & Tabs

Mighty Mighty Bosstones Chords & Tabs

Version: 1 Type: Tab 0 ratings
1 star 2 stars 3 stars 4 stars 5 stars
comments

Devils Nite Out Tab

   
ArtisT: mighty Mighty Bosstones
Song: Devils' night out       
Album: devils nite out


email me with any questions at bosstoner737@hotmail.com

INTRO  2x                                       second time
                                                (---------) 
E|---------------------------------------------------------
B|---------------------------------------------------------
G|-9-9-7-9------------------9-9-7-9----------------------9-
D|-9-9-7-9------------------9-9-7-9--------------8-8-8-8-7-
A|-7-7-5-7-9-9-9-9-9-9-9-9--7-7-5-7--------------8-8-8-8-7-
E|---------7-6-5-6-7-6-5-6----------8(let ring)--6-6-6-6---
                                      1st time                                              

play basically the same thing for the 1st verse, so you play the whole
Intro about 4 times after the drums kick in. Then after dicky screams
"SO GIRLS DRY YOUR TEARS!" play this...

E|----------------------------------
B|----------------------------------
G|----------------------------------
D|----------------------------------
A|-------------------------2h4p2h4--
E|-0-2-2-0-0h2h5p2-0-2-2-0---------5


THis is the ska part played with the horns played 2x

E|-5-5-5-5-3-3-3-3-5-5-5-5-3-3-3-3-
B|-5-5-5-5-3-3-3-3-5-5-5-5-3-3-3-3-
G|-6-6-6-6-4-4-4-4-6-6-6-6-4-4-4-4-
D|---------------------------------
A|---------------------------------
E|---------------------------------

[ Tab from: http://www.guitartabs.cc/tabs/m/mighty_mighty_bosstones/devils_nite_out_tab.html ]
after that there is a saxophone solo and all the guitar plays is fret 
12 on the high E string, so just bend that string a lot and play around
with it. then play...
 
  2x 
E|-5-5-5-5-3-3-3-3-5-5-5-5-3-3-3-3-
B|-5-5-5-5-3-3-3-3-5-5-5-5-3-3-3-3-
G|-6-6-6-6-4-4-4-4-6-6-6-6-4-4-4-4-
D|---------------------------------
A|---------------------------------
E|---------------------------------

   4x 
E|----------------------------------
B|----------------------------------
G|----------------------------------
D|----------------------------------
A|-------------------------2h4p2h4--
E|-0-2-2-0-0h2h5p2-0-2-2-0---------5

  2x 
E|-5-5-5-5-3-3-3-3-5-5-5-5-3-3-3-3-
B|-5-5-5-5-3-3-3-3-5-5-5-5-3-3-3-3-
G|-6-6-6-6-4-4-4-4-6-6-6-6-4-4-4-4-
D|---------------------------------
A|---------------------------------
E|---------------------------------


Guitar 1 
plays this 12x

E|----------------------------------------------
B|----------------------------------------------
G|-9-9-7-9------------------9-9-7-9-----------7-
D|-9-9-7-9------------------9-9-7-9---8-8-8-8-7-
A|-7-7-5-7-9-9-9-9-9-9-9-9--7-7-5-7---8-8-8-8-5-
E|---------7-6-5-6-7-6-5-6------------6-6-6-6---

Guitar 2 
after guitar 1 plays the above 4 times Guitar 2 has a solo, the begging
of it goes like this, but the rest is pretty much up to you. 


E|-/12~12~12~15b-p15p12------------------
B|--------------------15-12--------------
G|--------------------------14b-12h14p12-
D|---------------------------------------
A|---------------------------------------
E|---------------------------------------


OUTRO

this is right after the solo

E|----------------------------------------
B|----------------------------------------
G|------------------------------9- OOH!-9-
D|8-8-8-8-7-8-8-8-8-7-8-8-8-8-7-9-------9-
A|8-8-8-8-7-8-8-8-8-7-8-8-8-8-7-7-------7-
E|7-7-7-7-5-7-7-7-7-5-7-7-7-7-5-----------
Comments