Mighty Mighty Bosstones - Cowboy Coffee Chords & Tabs

 

Cowboy Coffee Chords & Tabs

Mighty Mighty Bosstones Chords & Tabs

Version: 1 Type: Bass Tab 0 ratings
1 star 2 stars 3 stars 4 stars 5 stars
comments

Cowboy Coffee Bass Tab

Song: Cowboy Coffee
Band: Mighty Mighty BossToneS
Album: More Noise and Other Disturbances
tabbed by: Adam Marish/Jimmy McAndrew


verse

G:-------------------------------------22-0------
D:---4^7----4^7--44-------------------------4----
A:-5------5---------5------2^5----2^5------------
E:---------------------2-3------3----------------

chorus (play along with the horns)
[ Tab from: http://www.guitartabs.cc/tabs/m/mighty_mighty_bosstones/cowboy_coffee_btab.html ]
G:-----------4---------------------
D:-7-4-----7---5-7----55--4-5------
A:-----5-----------5---------------
E:---------------------------------


That's It!  Joe does use some ending variations in the
verse I think...but I don't feel like trying to figure
them all out...it's too tough.

Adam Marish
The Royal Noise Brigade - Great Pennsylvania Ska!
www.come.to/royalnoisebrigade

Comments