Mighty Mighty Bosstones - Bartenders Song Chords & Tabs

 

Bartenders Song Chords & Tabs

Mighty Mighty Bosstones Chords & Tabs

Version: 2 Type: Bass Tab 0 ratings
1 star 2 stars 3 stars 4 stars 5 stars
comments

Bartenders Song Bass Tab

BOSSTONES
BARTENDERS SONG

Album:Devils Nite Out
tabbed by:Kalle Peterz
______________________________________________


Intro x4

G|---------------------------
D|----7----4-4-5-7-7-5-4-----
A|--5---5----------------7-5-
E|---------------------------


Verse x2

Play the intro x4 and then:

G|----------------------------
D|----------------------------
A|--7-7-7-7-7-7-7-7-7-7-7-7---
E|----------------------------


Bridge
[ Tab from: http://www.guitartabs.cc/tabs/m/mighty_mighty_bosstones/bartenders_song_btab_ver_2.html ]
G|---------------------------------
D|---------------------------------
A|--7-7---------5---7-7------------
E|------7-5-5h7---------7-5-5-7-7--


and after that:

G|--------------------------------
D|--------------------------------
A|--------5-----------5-----------
E|--5-3-5---5---5-3-5---5---------


Last verse x4

G|---------------------------
D|----9---6-6-7-9-9-7-6------
A|--7---7---------------9-7--
E|---------------------------


End

G|---------
D|--6------
A|----9-7--
E|---------


Intro
Verse x2
Bridge
Verse
Bridge
Slow part
Verse
Verse with just song
Last Verse
End

That's it I've probably done a few misstakes tabbing this song but this
is as good as I can. 
Comments