Midtown - Recluse Chords & Tabs

 

Recluse Chords & Tabs

Midtown Chords & Tabs

Version: 1 Type: Tab 0 ratings
1 star 2 stars 3 stars 4 stars 5 stars
comments

Recluse Tab

   
Standard E Tuning

The intro is strumed then goes into the chords starting with "A" on the
second line.

Intro Solo
         E        B          D          A
e---------------------------------------------------------------------------|
b----9-----9--------------------7-------5-----------------------------------|
g------9-------------8--------7-----------6---------------------------------|
d--------9---------9--------7---------------7-------------------------------|
a----------------9--------5-------------------------------------------------|
e--------------7--------------------5---------------------------------------|
[ Tab from: http://www.guitartabs.cc/tabs/m/midtown/recluse_tab.html ]
         A        Fm#       B
e-----------------------------------|---------------------------------------|
b--------2--------------------------|---------------------------------------|
g--------2--------------------4-4---|----9-----7-----7-----6----------------|
d--------2---------4-4--------4-2---|----9-----9-----7-----7----------------|
a------------------4-4--------2-2---|----7-----6-----5-----4----------------|
e------------------2-2--------------|---------------------------------------|

You just repeat this part for a while...
         C#m     C#m/A
e---------------------------------------------------------------------------|
b---------------------------------------------------------------------------|
g---------6---------6--------6--------------------2-------------------------|
d---------6---------6--------6------------2-------2---------6---7---9-------|
a---------4---------4--------4------------2-------0---------6---7---9-------|
e-------------------5--------0------------0-----------------4---5---7-------|

You repeat that for a while also...
          Emaj7                           A
e-----------4---------------------------------------------------------------|
b-----------4-----------------------------2---------------------------------|
g-----------4-----------------------------2---------------------------------|
d-----------2-----------------------------2---------------------------------|
a-----------2---------------------------------------------------------------|
e---------------------------------------------------------------------------|

Tabbed By: Livergood a.k.a. xCKYx666xHIMx
Comments