Midtown - No Place Feels Like Home Chords & Tabs

 

No Place Feels Like Home Chords & Tabs

Midtown Chords & Tabs

Version: 1 Type: Bass Tab 0 ratings
1 star 2 stars 3 stars 4 stars 5 stars
comments

No Place Feels Like Home Bass Tab

Song - No place feels like home by Midtown
Tabbed by - Matt Williams
jyhad999@yahoo.com

03/07/02

This is an amazing song by an amazing band.  I absolutley love it.  I
just spent about 2 hours tabbing down every little nuance.  I'm pretty
sure it's right.  Overall you're good to go except for the last measure 
of the bridge/first measure of the outro.  That's my best guess for those 
two bars.  Lyrics are at the bottom.  I'm in the process of finishing 
up the tab for the 2 guitars.  Look for it later this week.  Feedback is 
welcome.  Since we plan on covering this song I'd like to know if I'm 
doing it right!

"*" above note = short note (5) = ring out \ = slide down / = slide up

Intro 

G ||----------------|----------------|----------------|----------------|
D ||----------------|----------------|----------------|----------------|
A ||----------------|----------------|----------------|----------------|
E ||----------------|----------------|----------------|----------------|
    1 & 2 & 3 & 4 & |1 & 2 & 3 & 4 & |1 & 2 & 3 & 4 & |1 & 2 & 3 & 4 & |

G ||----------------|----------------|----------------|----------------|
D ||----------------|----------------|----------------|----------------|
A ||----------------|----------------|----------------|4-------2-------|
E ||0---------------|----------------|0---------------|----------------|
    1 & 2 & 3 & 4 & |1 & 2 & 3 & 4 & |1 & 2 & 3 & 4 & |1 & 2 & 3 & 4 & |

Verse 1
G ||----------------|----------------|----------------|----------------|
D ||----------------|----------------|----------------|----------------|
A ||7---9---6---7---|4-------2-------|7---9---6---7---|4-------2-------|
E ||----------------|----------------|----------------|----------------|
    1 & 2 & 3 & 4 & |1 & 2 & 3 & 4 & |1 & 2 & 3 & 4 & |1 & 2 & 3 & 4 & |

G ||----------------|----------------|----------------|----------------|
D ||----------------|----------------|----------------|----------------|
A ||7---9---6---7---|4-------2-------|7---9---6---7---|4-------2-------|
E ||----------------|----------------|----------------|----------------|
    1 & 2 & 3 & 4 & |1 & 2 & 3 & 4 & |1 & 2 & 3 & 4 & |1 & 2 & 3 & 4 & |

Break 1
G ||----------------|----------------|----------------|----------------|
D ||----------------|----------------|----------------|----------------|
A ||7---------------|----------------|----------------|----------------|
E ||----------------|----------------|----------------|----------------|
    1 & 2 & 3 & 4 & |1 & 2 & 3 & 4 & |1 & 2 & 3 & 4 & |1 & 2 & 3 & 4 & |

Verse 2
G ||------------------------|----------------|
D ||------------------------|----------------|
A ||7777/99999\66666/77777\4|4444444422222222|
E ||------------------------|----------------|
    1 &   2 &   3 &   4 &   |1 & 2 & 3 & 4 & |

G ||------------------------|----------------|
D ||------------------------|----------------|
A ||7777/99999\66666/77777\4|4444444422222222|
E ||------------------------|----------------|
    1 &   2 &   3 &   4 &   |1 & 2 & 3 & 4 & |

Break 2
G ||----------------|----------------|
D ||----------------|----------------|
A ||7---------------|7------------\0-|
E ||----------------|----------------|
    1 & 2 & 3 & 4 & |1 & 2 & 3 & 4 & |

Chorus 1
G ||----------------|----------------|----------------|----------------|
D ||----------------|----------------|----------------|----------------|
A ||----------------|4---4---4-------|----------------|----------------|
E ||0-------4-------|----------------|5---5---5---5---|4---4---77777777|
    1 & 2 & 3 & 4 & |1 & 2 & 3 & 4 & |1 & 2 & 3 & 4 & |1 & 2 & 3 & 4 & |

G ||----------------|----------------|----------------|----------------|
D ||----------------|----------------|----------------|----------------|
A ||77777777--------|44444444--------|----------------|----------------|
E ||--------44444444|--------55555555|4444444455555555|2222222277777777|
    1 & 2 & 3 & 4 & |1 & 2 & 3 & 4 & |1 & 2 & 3 & 4 & |1 & 2 & 3 & 4 & |

G ||----------------|----------------|----------------|----------------|
D ||----------------|----------------|----------------|----------------|
A ||----------------|4---4---2---2---|7---9---6---7---|4---4---2---2---|
E ||----------------|----------------|----------------|----------------|
    1 & 2 & 3 & 4 & |1 & 2 & 3 & 4 & |1 & 2 & 3 & 4 & |1 & 2 & 3 & 4 & |

Verse 3
G ||------------------------|----------------|
D ||------------------------|----------------|
A ||7777/99999\66666/77777\4|4444444422222222|
E ||------------------------|----------------|
    1 &   2 &   3 &   4 &   |1 & 2 & 3 & 4 & |

G ||------------------------|----------------|
D ||------------------------|----------------|
A ||7777/99999\66666/77777\4|4444444422222222|
E ||------------------------|----------------|
    1 &   2 &   3 &   4 &   |1 & 2 & 3 & 4 & |
[ Tab from: http://www.guitartabs.cc/tabs/m/midtown/no_place_feels_like_home_btab.html ]
G ||----------------|----------------|
D ||----------------|----------------|
A ||----------------|4444444422222222|
E ||0---0---2---2---|----------------|
    1 & 2 & 3 & 4 & |1 & 2 & 3 & 4 & |

G ||------------------------|----------------|----------------|
D ||------------------------|----------------|----------------|
A ||7777/99999\66666/77777\4|4444444422222222|0---------------|
E ||------------------------|----------------|----------------|
    1 &   2 &   3 &   4 &   |1 & 2 & 3 & 4 & |1 & 2 & 3 & 4 & |




Chorus 2
G ||----------------|----------------|----------------|----------------|
D ||----------------|----------------|----------------|----------------|
A ||----------------|4---4---4-------|----------------|----------------|
E ||0-------4-------|----------------|5---5---5---5---|4---4---77777777|
    1 & 2 & 3 & 4 & |1 & 2 & 3 & 4 & |1 & 2 & 3 & 4 & |1 & 2 & 3 & 4 & |

G ||----------------|----------------|----------------|----------------|
D ||----------------|----------------|----------------|----------------|
A ||77777777--------|44444444--------|----------------|----------------|
E ||--------44444444|--------55555555|4444444455555555|2222222277777777|
    1 & 2 & 3 & 4 & |1 & 2 & 3 & 4 & |1 & 2 & 3 & 4 & |1 & 2 & 3 & 4 & |

Bridge
G ||----------------|----------------|----------------|----------------|
D ||----------------|----------------|----------------|----------------|
A ||----------------|----------------|----------------|----------------|
E ||2---------------|0---------------|9999--5555--55--|4444--7777--77--|
    1 & 2 & 3 & 4 & |1 & 2 & 3 & 4 & |1 & 2 & 3 & 4 & |1 & 2 & 3 & 4 & |

G ||----------------|----------------|----------------|----------------|
D ||----------------|----------------|----------------|----------------|
A ||----------------|----------------|----------------|----------------|
E ||2---------------|0---------------|9999--5555--55--|4444--7777--77--|
    1 & 2 & 3 & 4 & |1 & 2 & 3 & 4 & |1 & 2 & 3 & 4 & |1 & 2 & 3 & 4 & |

G ||----------------|----------------|----------------|----------------|
D ||----------------|----------------|----------------|----------------|
A ||----------------|----------------|----------------|----------------|
E ||2222225555555555|0000007777777777|2222225555555555|0000007777777777|
    1 & 2 & 3 & 4 & |1 & 2 & 3 & 4 & |1 & 2 & 3 & 4 & |1 & 2 & 3 & 4 & |

G ||----------------|----------------|----------------|----------------|
D ||----------------|----------------|----------------|----------------|
A ||----------------|----------------|----------------|--------*-*-*-*-|
E ||2222225555555555|0000007777777777|2222225555555555|000000007-7-7-7-|
    1 & 2 & 3 & 4 & |1 & 2 & 3 & 4 & |1 & 2 & 3 & 4 & |1 & 2 & 3 & 4 & |

Outro
G ||----------------|----------------|----------------|----------------|
D ||---***----------|----------------|----------------|----------------|
A ||*-*999----------|4---4-----------|----------------|------------9\--|
E ||7-7---0-4---4---|--------5---5424|0---0---4---4---|5---5---7-------|
    1 & 2 & 3 & 4 & |1 & 2 & 3 & 4 & |1 & 2 & 3 & 4 & |1 & 2 & 3 & 4 & |

G ||----------------|----------------|----------------|----------------|
D ||----------------|----------------|----------------|----------------|
A ||7---7-----------|4---4-----------|----------------|----------------|
E ||--------4---4---|--------5---7542|0---0---4---4---|5---------------|
    1 & 2 & 3 & 4 & |1 & 2 & 3 & 4 & |1 & 2 & 3 & 4 & |1 & 2 & 3 & 4 & |

G ||----------------|----------------|----------------|----------------|
D ||----------------|----------------|----------------|----------------|
A ||----------------|----------------|----------------|----------------|
E ||0---------------|(0)-------------|(0)-------------|(0)-------------|
    1 & 2 & 3 & 4 & |1 & 2 & 3 & 4 & |1 & 2 & 3 & 4 & |1 & 2 & 3 & 4 & |

Lyrics

Regrets are worthless, 
they misconstrue the past in sight and sound 
and as lines recede no one speaks
a word of his lust 
a word of dreams that've been left to rust. 
The tv's on and everyone stays calm. 

Regrets are worthless, 
As time has passed no one understands 
and to say the least the years have been unfair. 

I wanted to tell you I miss it. (I miss it)
I just wanted to let you know 
the last year has helped me grow. 
I want to take you on the road, 
where we'll go i'll never know. 
Will you come along? 
It's easier when no place feels like home. 

Regrets are worthless, 
As time has passed which no one understands 
the years have been unfair to this one
I said I want out, I want to take you out of this
and go to California 
I want to take you on a ride.

I wanted to tell you I miss it. (I miss it)
I just wanted to let you know 
the last year has helped me grow. 
I want to take you on the road, 
where we'll go i'll never know. 
Will you come along? 
It's easier when no place feels like home. 

I'll set things right, 
this time 
direction
in which to go. 
I'll set things right
I'll say goodnight.
Goodnight

I wanted to tell you I miss it. (I miss it)
I wanted to tell you I miss it. (I want to take you on the road)
I wanted to tell you I miss it. (I miss it)
I wanted to tell you I miss it. (I want to take you on the road)
Comments