Midtown - Like A Movie Chords & Tabs

 

Like A Movie Chords & Tabs

Midtown Chords & Tabs

Version: 2 Type: Tab 0 ratings
1 star 2 stars 3 stars 4 stars 5 stars
comments

Like A Movie Tab

   
Band : Midtown
Song : Like A movie	
Tabed By : Kevin Terry		


			1/2 step down




	 
Riff A			  Riff B				  Riff C
eb------12----12-----------|-----17----17----17----17--------|-----------------------------------
bb---10----10------9/10----|--------17----17----17----17-----|-----------------------------------
gb-------------------------|---------------------------------|-----------------------------
db-------------------------|---------------------------------|----xx-7---------------------------
ab-------------------------|---------------------------------|----xx-7---------------------------
Eb-------------------------|---------------------------------|----xx-5---------------------------



(play "Riff A" 8 times, after 4 guitar 2 begins "Riff B". At begining of "Riff B" guitar 3 plays 
"Riff C")

	

eb----------------------------------------------------------------------------------------------
bb----------------------------------------------------------------------------------------------
gb---------------------77----------------7-----77-----------------------------------------------
db--7-77--2-22--4-44---77----7-77--2-22--7-----77----5------------------------------------
ab--7-77--2-22--4-44---55-0--7-77--2-22--5-----55-0--5------------------------------------------
Eb--5-55--0-00--2-22---------5-55--0-00--------------7------------------------------------------


	
		[pick around with...]
eb-----------------------------------------------------------------------------------------------
bb-----------------------------------------------------------------------------------------------
gb--------------7----5------------------------------------------------------------------------------
db----7----4----7----5--------------------------------------------------------------------------------
ab----7----4----5----7--------------------------------------------------------------------------------
Eb----5----2---------------------------------------------------------------------------------------




	

eb----------------12--------------10-------------------------------------------------------------
bb-------10--------------10----------------------------------------------------------------------
gb-----------------------------------------------------------------------------------------------
db-----------------------------------------------------------------------------------------------
ab-----------------------------------------------------------------------------------------------
Eb-----------------------------------------------------------------------------------------------


	
[ Tab from: http://www.guitartabs.cc/tabs/m/midtown/like_a_movie_tab_ver_2.html ]
eb-----------------------------------------------------------------------------------------------
bb-----------------------------------------------------------------------------------------------
gb-------------------------------------------7--7-7-7-7-7-7-7---9--9-9-9-7-7-7-7-----------------
db-----7--7-7-7-7-7-7-7---4--4-4-4-4-4-4-4---7--7-7-7-7-7-7-7---9--9-9-9-7-7-7-7-----------------
ab-----7--7-7-7-7-7-7-7---4--4-4-4-4-4-4-4---5--5-5-5-5-5-5-5---7--7-7-7-5-5-5-5-----------------
Eb-----5--5-5-5-5-5-5-5---2--2-2-2-2-2-2-2-------------------------------------------------------
	 [P.M..........]    [P.M..........]    [P.M..........]    [P.M..........]

	

eb-----------------------------------------------------------------------------------------------
bb-----------------------------------------------------------------------------------------------
gb--7------9----11-----9-----7----9--------------------------------------------------------------
db--7------9----11-----9-----7----9--------------------------------------------------------------
ab--5------7-----9-----7-----5----7--------------------------------------------------------------
Eb-----------------------------------------------------------------------------------------------



	

eb--------9-9-9---------------9------------------9------------12-10-9-10-9-----------------------
bb--------------12-10----10------12-10-12-10--10----12-10-12---------------12-10-----------------
gb--------------------11-------------------------------------------------------------------------
db-----------------------------------------------------------------------------------------------
ab-----------------------------------------------------------------------------------------------
Eb-----------------------------------------------------------------------------------------------

eb--------9-9-9---------------9------------------9------------12-10-9-10-9---10~--12~------------
bb--------------12-10----10------12-10-12-10--10----12-10-12-------------------------------------
gb--------------------11-------------------------------------------------------------------------
db-----------------------------------------------------------------------------------------------
ab-----------------------------------------------------------------------------------------------
Eb-----------------------------------------------------------------------------------------------
		[play the "harder" verse part underneath]


	
		
eb-----------------------------------------------------------------------------------------------
bb---12-12-12-10-10-10------12-12-12-10-10-10-----12-12-12-10-10-10-----14-14-14-12-12-12-14-12--
gb---------------------9-9--------------------9-9-------------------9-9--------------------------
db-----------------------------------------------------------------------------------------------
ab-----------------------------------------------------------------------------------------------
Eb-----------------------------------------------------------------------------------------------
		[play the chorus underneath]

Comments