Midtown - Like A Movie Chords & Tabs

 

Like A Movie Chords & Tabs

Midtown Chords & Tabs

Version: 1 Type: Bass Tab 0 ratings
1 star 2 stars 3 stars 4 stars 5 stars
comments

Like A Movie Bass Tab

   
-------------------------------------------------------------------------------
			     Like A Movie - Midtown
-------------------------------------------------------------------------------

Tabbed By : Zero is Great Man
Tuning: EADG

Intro/Chorus: "She tries to erase, She tries to replace."
G|---------------------------------------------------------------------------|
D|---------------------------------------------------------------------------|
A|--------6-6-----------4-4---------------6-6-6-6--------4-4-4-4--6-6--------|
E|-4-4-----------1-1-----------4-4-4-4---------------------------------------|

Verse:"Tries to forget about..."/"I woke up today around..."
G|---------------------------------------------------------------------------|
D|---------------------------------------------------------------------------|
A|------------------------4-4-4-4-----6-6-6-6--------------------------------|
E|-4-4-4-4----1-1-1-1--------------------------------------------------------|
[ Tab from: http://www.guitartabs.cc/tabs/m/midtown/like_a_movie_btab.html ]
"The reason her life did not turn out..."
G|---------------------------------------------------------------------------|
D|---------------------------------------------------------------------------|
A|-4-4-4-4----6-6-6-6--------------------------------------------------------|
E|---------------------------------------------------------------------------|

"...More like a movie"
G|---------------------------------------------------------------------------|
D|---------------------------------------------------------------------------|
A|-8-8-8-8----6-6-6-6----4-4-4-4----6-6-6-6----------------------------------|
E|---------------------------------------------------------------------------|

Bridge: "And If I fall away, somday you might find me."
G|---------------------------------------------------------------------------|
D|-----------3---------------------------------------------------------------|
A|------6---------4---------6----4-------------------------------------------|
E|-4-------------------4-----------------------------------------------------|

Outro:(Let ring)
G|---------------------------------------------------------------------------|
D|---------------------------------------------------------------------------|
A|---------------------------------------------------------------------------|
E|-4~------------------------------------------------------------------------|


| /  slide up
| \  slide down
| h  hammer-on
| p  pull-off
| ~  vibrato
| +  harmonic
| x  Mute note

===============================================================================
Comments