Midtown - Give It Up Chords & Tabs

 

Give It Up Chords & Tabs

Midtown Chords & Tabs

Version: 2 Type: Tab 0 ratings
1 star 2 stars 3 stars 4 stars 5 stars
comments

Give It Up Tab

Midtown - give it up solo tab

Well since there was no where else I could look to find this solo tab I had no choice
but to tab it myself. Note: I am only fourteen and I have been playing for about two
and a half years but it should be right.
If you aren't that great at using vibrato very fast then on these "~" squiggly things
you can just play it normal and it will sort of sound the same.

1 -------------------------------------------------|
2 -------------------------------13-14-13----------|
3 15-13-15~--15-13-15~--15-13-15----------15-13----|
4 -------------------------------------------------|   x3
5 -------------------------------------------------|
6 -------------------------------------------------|

Fourth time...

1 -------------------------------13-------------|
2 ----------------------------------16-14-13-14-|
3 15-13-15~--15-13-15~--15-13-15----------------|
4 ----------------------------------------------|
5 ----------------------------------------------|
6 ----------------------------------------------|

After that it changes to...

1 -------------------------------13---------------|
2 -----------14-13-14---------------16-14-13-14---|
3 15-13-15~-------------15-13-15------------------|
4 ------------------------------------------------|  x3
5 ------------------------------------------------|
6 ------------------------------------------------|

Fourth time...
1 -------------------------------16-14-13----13-|
2 -----------14-13-14---------------------16----|
3 15-13-15~-------------15-13-15----------------|
4 ----------------------------------------------|
5 ----------------------------------------------|
6 ----------------------------------------------|
[ Tab from: http://www.guitartabs.cc/tabs/m/midtown/give_it_up_tab_ver_2.html ]
Then play...

1 ---------16~--------16~--------16-14-13----13--|
2 14-13-14------13-14------13-14----------16-----|
3 -----------------------------------------------|
4 -----------------------------------------------| x3
5 -----------------------------------------------|
6 -----------------------------------------------|

Fourth time...

1 ---------16~--------16~--------16---16---16-18-|
2 14-13-14------13-14------13-14-----------------|
3 -----------------------------------------------|
4 -----------------------------------------------|
5 -----------------------------------------------|
6 -----------------------------------------------|

On the bending you should pluck multiple times after the bend until the next fret change.

1 19b---19b---18-18-18-18-18-18-18-20-20b------18-18-18-18-18-18-18-|
2 ------------------------------------------------------------------|
3 ------------------------------------------------------------------|
4 ------------------------------------------------------------------|
5 ------------------------------------------------------------------|
6 ------------------------------------------------------------------|

Last time

1 19b---19b---18-18-18-18-18-18-18-20-20b------------------------------|
2 ---------------------------------------------13-14-13----------------|
3 ------------------------------------------------------15-13-15-13-15-|
4 ---------------------------------------------------------------------|
5 ---------------------------------------------------------------------|
6 ---------------------------------------------------------------------|
and slide down

email me if you have any thoughts or if you have found something wrong... taylors412@hotmail.com
Comments