Midtown - Give It Up Chords & Tabs

 

Give It Up Chords & Tabs

Midtown Chords & Tabs

Version: 1 Type: Tab 0 ratings
1 star 2 stars 3 stars 4 stars 5 stars
comments

Give It Up Tab

   
ok so this took me 20 minutes to tab out. it's a really easy song to play.
i'm pretty sure it's correct. it sounds perfect when you play it. if you have
any questions/comments email me at iBLiNKEDndMESTup@aol.com. oh and one more
thing. the solo is just the solo in general. it's played the same way during
the whole thing but altered a little here and there with some bends and crap.
so fool around with it and listen to the song to get the whole thing.

~ let ring
* Palm mute
h Hammer on
B bend

standard EADGBe tuning

INTRO strum down for 6 counts of 8..only twice before bass starts
E-----------------------------------------------------------------------|
B-----------------------------------------------------------------------|
G-----------------------------------------------------------------------|
D-8---------------------------------------------------------------------|
A-8---------------------------------------------------------------------|
E-6---------------------------------------------------------------------|

VERSE 1 	       --->	         Right After Verse
E-----------------------------------------------------------------------|
B-----------------------------------------------------------------------|
G----------------------------------------10-11-10-8-6-5-2---------------|
D-8--4--8--4--3-8~-----------------------------------------------------|
A-8--4--8--4--3-8~-----------------------------------------------------|
E-6--2--6--2--1-6~-----------------------------------------------------|

PRE-CHORUS - "Give it up give it up"
E-----------------------------------------------------------------------|
B-----------------------------------------------------------------------|
G-----------------------------------------------------------------------|
D-8--4--8--4--3-4------------------------------------------------------|
A-8--4--8--4--3-4------------------------------------------------------|
E-6--2--6--2--1-2------------------------------------------------------|
[ Tab from: http://www.guitartabs.cc/tabs/m/midtown/give_it_up_tab.html ]
CHORUS - "It's not me you're waiting for"
E-----------------------------------------------------------------------|
B-----------------------------------------------------------------------|
G-----------------------------------------------------------------------|
D-8--4--3--4--6--8--4---------------------------------------------------|
A-8--4--3--4--6--8--4---------------------------------------------------|
E-6--2--1--2--4--6--2---------------------------------------------------|

Verse 2
E-----------------------------------------------------------------------|
B---------9h79h7-------------------------------------------------------|
G-----------------------------------------------------------------------|
D-8*--------------------------------------------------------------------|
A-8*--------------------------------------------------------------------|
E-6*--------------------------------------------------------------------|
(palm mute twice and then open once really fast for 1  counts of 8. Listen to the pattern)

Pre-chorus
Chorus

Bridge (strum once each. Really on piano but this is for guitar.
E-----------------------------------------------------------------------|
B-----------------------------------------------------------------------|
G-----------------------------------------------------------------------|
D--4--6--8--------------------------------------------------------------|
A--4--6--8--------------------------------------------------------------|
E--2--4--6--------------------------------------------------------------|

Solo (chorus is played behind it also)
E-------------------------------------------------------------------|
B11h9--1111h9--1111h9--11--13--14--14--13--13--------------------|
G-------------------------------------------------------------------|
D-------------------------------------------------------------------|
A-------------------------------------------------------------------|
E-------------------------------------------------------------------|

Play chorus and then intro a couple times
End on:
E-----------------------------------------------------------------------|
B-----------------------------------------------------------------------|
G-----------------------------------------------------------------------|
D-8---------------------------------------------------------------------|
A-8---------------------------------------------------------------------|
E-6---------------------------------------------------------------------|


peace out cub scouts
Comments