Midtown - Come On Chords & Tabs

 

Come On Chords & Tabs

Midtown Chords & Tabs

Version: 1 Type: Bass Tab 0 ratings
1 star 2 stars 3 stars 4 stars 5 stars
comments

Come On Bass Tab

          Song: Come On
          Band: Midtown
          Album: Save the World, Lose the Girl
          Tabbed by: Brendan Platt
          
          
          
          guitar part at first, wait for bass then..
          intro                     then 
          G:---------------------   -----------------
          D:----------------3-2--   -----------------
          A:---------------------   -----------------
          E:-3---1---3---1-------   ---5-3-1---------
          
          X2
          G:---------------------------------------
          D:-----2>--------------------------------
          A:--3>-----------------------------------
          E:--------3>-1>--5-3-1-------------------
          
          X2
          G:-------------------------------
          D:----2>-3-2---------------------
          A:-3>----------------------------
          E:-----------3>--5-3-1>----------
          do those types of things for a bit
          
          then when it changes...
          'i'm waiting for you... '
          G:------------      do----------------------------------
          D:------------    this----------------------------------
          A:------------   three--3>------------------------------
          E:-3>-5>-1>---   times-----0>-3>-3>-5>-5>-1>-1>---------
          
          G:-------------------------------
          D:----------------2>-------------
          A:-3>----------3>----------------
          E:----0>-3>-1>-------3>-1>-------
[ Tab from: http://www.guitartabs.cc/tabs/m/midtown/come_on_btab.html ]
Comments