Midtown - Battle Of The Sexes Theme Chords & Tabs

 

Battle Of The Sexes Theme Chords & Tabs

Midtown Chords & Tabs

Version: 1 Type: Tab 0 ratings
1 star 2 stars 3 stars 4 stars 5 stars
comments

Battle Of The Sexes Theme Tab

   
--------------------------------------------------------------------------------
         Real World/Road Rules: Battle Of The Sexes Theme - Midtown
--------------------------------------------------------------------------------

Tabbed By : Zero is great man
Tuning: EADGE

Intro: "Come on, let go, all those affectations"
Gtr 1:
e|-x-x-x-x-------------------------|
B|-x-x-x-x-------------------------|
G|-x-x-x-x-------4-4--2-2--2-2-2-2-|
D|-x-x-x-x--2-2--4-4--2-2--2-2-2-2-|
A|-x-x-x-x--2-2--2-2--0-0--0-0-0-0-|
E|-x-x-x-x--0-0--------------------|

Gtr2:
e|-x-x-x-x-------------------------|
B|-x-x-x-x-------------------------|
G|-x-x-x-x--9-9--------------------|
D|-x-x-x-x--9-9--9-9--7-7--7-7-7-7-|
A|-x-x-x-x--7-7--9-9--7-7--7-7-7-7-|
E|-x-x-x-x-------7-7--5-5--5-5-5-5-|

"You don't fool any one"
Gtr 1
e|------------------------x-x-x-x-|
B|------------------------x-x-x-x-|
G|------4-4--2-2--2-2-2-2-x-x-x-x-|
D|-2-2--4-4--2-2--2-2-2-2-x-x-x-x-|
A|-2-2--2-2--0-0--0-0-0-0-x-x-x-x-|
E|-0-0--------------------x-x-x-x-|

Gtr 2
e|----------------------------------|
B|----------------------------------|
G|-9-9------------------------13----|
D|-x-x--9-9--7-7-7-7----14-16----14-|
A|-7-7--x-x--0-0-0-0----------------|
E|------7-7-------------------------|

"Come on, Let go if you want to take on"
Gtr 1
e|---------------------------|
B|---------------------------|
G|------4-4--2-2-2-2-2-2-2-2-|
D|-2-2--4-4--2-2-2-2-2-2-2-2-|
A|-2-2--2-2--0-0-0-0-0-0-0-0-|
E|-0-0-----------------------|

Gtr 2
e|---------------------------|
B|---------------------------|
G|-9-9-----------------------|
D|-9-9--9-9--7-7-7-7-7-7-7-7-|
A|-7-7--9-9--7-7-7-7-7-7-7-7-|
E|------7-7--5-5-5-5-5-5-5-5-|

"The Years won't say, what happen to you..."
Gtr 1
e|-------------------------------------------------------------------x-x-x-x-|
B|-------------------------------------------------------------------x-x-x-x-|
G|-6-6-6-6-6-6-6-6---------------------------------------------------x-x-x-x-|
D|-6-6-6-6-6-6-6-6--6-6-6-6-6-6-6-6--7-7-7-7-7-7-7-7-7-7-7-7-7-7-7-7-x-x-x-x-|
A|-4-4-4-4-4-4-4-4--6-6-6-6-6-6-6-6--7-7-7-7-7-7-7-7-7-7-7-7-7-7-7-7-x-x-x-x-|
E|------------------4-4-4-4-4-4-4-4--5-5-5-5-5-5-5-5-5-5-5-5-5-5-5-5-x-x-x-x-|

Gtr 2
e|---------------------------------------------------------------------x-x-x-|
B|---------------------------------------------------------------------x-x-x-|
G|-4/6-6-6-6-6-6-6--9/11-11-11-11-11-11-11--13-13-13/14-14-14-14-14-14-x-x-x-|
D|-x/x-x-x-x-x-x-x--x/-x--x--x--x--x--x--x---x--x--x/-x--x--x--x--x--x-x-x-x-|
A|-2/4-4-4-4-4-4-4--7/-9--9--9--9--9--9--9--11-11-11/12-12-12-12-12-12-x-x-x-|
E|---------------------------------------------------------------------x-x-x-|

[Solo]
Gtr 1
e|----------------------------------------------------------------------|
B|----------------------------------------------------------------------|
G|-9-9-9-9--------------------------------------------------------------|
D|-9-9-9-9--9-9-9-9--7-7-7-7--6-6--7-7--9-9-9-9-9-9-9-9-9-9-9-9-9-9-9-9-|
A|-7-7-7-7--9-9-9-9--7-7-7-7--6-6--7-7--9-9-9-9-9-9-9-9-9-9-9-9-9-9-9-9-|
E|----------7-7-7-7--5-5-5-5--4-4--5-5--7-7-7-7-7-7-7-7-7-7-7-7-7-7-7-7-|
[ Tab from: http://www.guitartabs.cc/tabs/m/midtown/battle_of_the_sexes_theme_tab.html ]
Gtr 2
e|-4-5-4-5-4-5-4-2--------------4-2--2-2-4-4-5-5-7-7-9-9-11-9-4-5-*-*-*-|
B|-----------------2-4p-2-4p-2------------------------------------------|
G|----------------------------------------------------------------------|
D|----------------------------------------------------------------------|
A|----------------------------------------------------------------------|
E|----------------------------------------------------------------------|

Bass riff: 

"I know you'll never lose, What's lost inside you."
G|------------------------------------|
D|------------------------------------|
A|-0-0-0-0-----------2-2-2-2----------|
E|----------0-0-0-0-----------0-0-0-0-|

"Your burining down, the bridges you cross"
G|------------------------------------|
D|------------------------------------|
A|-0-0-0-0-----------2-2-2-2----------|
E|----------0-0-0-0-----------0-0-0-0-|

"And your still around, so nothing certain"
G|------------------------------------|
D|------------------------------------|
A|-0-0-0-0-----------2-2-2-2----------|
E|----------0-0-0-0-----------0-0-0-0-|

"Just let go"
G|------------------|
D|------------------|
A|-0-0-0-0----------|
E|----------0-0-0-0-|

"We deserve it"
Both Guitars
e|---------|
B|---------|
G|-4-4-2-2-|
D|-4-4-2-2-|
A|-2-2-0-0-|
E|---------|

"And your still around, so nothings certain"
Gtr 1
e|------------------------------------|
B|------------------------------------|
G|-2-2-2-2-----------4-4-4-4----------|
D|-2-2-2-2--2-2-2-2--4-4-4-4--2-2-2-2-|
A|-0-0-0-0--2-2-2-2--2-2-2-2--2-2-2-2-|
E|----------0-0-0-0-----------0-0-0-0-|

Gtr 2
e|-0-0-0-0--0-0-0-0--0-0-0-0--0-0-0-0-|
B|-0-0-0-0--0-0-0-0--0-0-0-0--0-0-0-0-|
G|-0-0-0-0--9-9-9-9--0-0-0-0--9-9-9-9-|
D|-7-7-7-7--9-9-9-9--9-9-9-9--9-9-9-9-|
A|-7-7-7-7--7-7-7-7--9-9-9-9--7-7-7-7-|
E|-5-5-5-5--0-0-0-0--7-7-7-7--0-0-0-0-|

"Just let go, we deserve it (We deserve it)."
Gtr 1
e|-----------------------------------------------------|
B|-----------------------------------------------------|
G|-2-2-2-2-----------4-4-4-4-4-4-4-4-4-4-4-4-4-4-4-4-4-|
D|-2-2-2-2--2-2-2-2--4-4-4-4-4-4-4-4-4-4-4-4-4-4-4-4-4-|
A|-0-0-0-0--2-2-2-2--2-2-2-2-2-2-2-2-2-2-2-2-2-2-2-2-2-|
E|----------0-0-0-0------------------------------------|

Gtr 2
e|-0-0-0-0--0-0-0-0--0-0-0-0-0-0-0-0-0-0-0-0-0-0-0-0-0-|
B|-0-0-0-0--0-0-0-0--0-0-0-0-0-0-0-0-0-0-0-0-0-0-0-0-0-|
G|-0-0-0-0--9-9-9-9--0-0-0-0-0-0-0-0-0-0-0-0-0-0-0-0-0-|
D|-7-7-7-7--9-9-9-9--9-9-9-9-9-9-9-9-9-9-9-9-9-9-9-9-9-|
A|-7-7-7-7--7-7-7-7--9-9-9-9-9-9-9-9-9-9-9-9-9-9-9-9-9-|
E|-5-5-5-5--0-0-0-0--7-7-7-7-7-7-7-7-7-7-7-7-7-7-7-7-7-|

"Come on let go, all those affectations"
Gtr 1
e|-----|
B|-----|
G|-----|
D|-2-2-|
A|-2-2-|
E|-0-0-|

Gtr 2
e|-----|
B|-----|
G|-9-9-|
D|-9-9-|
A|-7-7-|
E|-----|

"Come On let go, all those affectations"
Both Guitars
e|-------------|
B|-------------|
G|-------------|
D|-2-2-*-*-*-*-|
A|-2-2-*-*-*-*-|
E|-0-0-*-*-*-*-|

"Come on and let go, Come on and let go"
Both Guitars
e|-------------------------------|
B|-------------------------------|
G|-------------------------------|
D|-2-2-2-2-2-2-2-2-2-2-2-2-2-2-2-|
A|-2-2-2-2-2-2-2-2-2-2-2-2-2-2-2-|
E|-0-0-0-0-0-0-0-0-0-0-0-0-0-0-0-|
 |---------------p.m.------------|

"You don't fool anyone."
Gtr 1
e|-------------|
B|-------------|
G|-6-----------|
D|-6----6----7-|
A|-4----6----7-|
E|------4----5-|

Gtr 2
e|---------------|
B|---------------|
G|-6----13----14-|
D|-x-----x-----x-|
A|-4----11----12-|
E|---------------|

| *    Let ring
| p.m  Palm mute
| /    slide up
| \    slide down
| h    hammer-on
| p    pull-off
| ~    vibrato
| +    harmonic
| x    Mute note

===============================================================================
Comments