Midtown - A Faulty Foundation Chords & Tabs

 

A Faulty Foundation Chords & Tabs

Midtown Chords & Tabs

Version: 1 Type: Tab 0 ratings
1 star 2 stars 3 stars 4 stars 5 stars
comments

A Faulty Foundation Tab

   
Tunning:   Standard Tuning - EBGDAE

Intro:
e|-----|----2-------------------------------------------------------|
B|-----|------5p4p2-------4h5-4h5-7-5-4-------7-5-4---4-------------|
G|-----|--4---------4-4h6---------------6-4-4-------6---6-4-6p4-3---|
D|-6-6-|----------------------------------------------------------4-|
A|-6-6-|------------------------------------------------------------|
E|-4-4-|------------------------------------------------------------|

-------------------------------------------------------------|
--------------------------------------------7----------------|
1-3-4-6-8-9-11-13p11-9-8--8-6h8-6-8-6------------------------|
--------------------------------------9----------------------|
-------------------------------------------------------------|
-------------------------------------------------------------|

Verse:
G|-----------4444------|-888-999-888-666--111111-13-11-9--9-8-6-4-6-8--9-|
D|-6666-2222-4444-4444-|-------------------------------------------------|
A|-6666-2222-2222-4444-|-666-777-666-444--9-9-9--11-9--7--7-6-4-2-4-6--7-|
E|-4444-0000------2222-|-------------------------------------------------|
                      x2                                                 x1
[ Tab from: http://www.guitartabs.cc/tabs/m/midtown/a_faulty_foundation_tab.html ]
Chorus:
G|-4444------6666-----------------------|
D|-4444-4444-6666-2222---9-11-9-8-9-8-9-|
A|-2222-4444-4444-2222------------------|
E|------2222------0000---7-9--7-6-7-6-7-|x2

Verse
Chorus x2

Bridge:
G|--------------------------|
D|-66666-44444-22222x2x2xx4-|
A|-66666-44444-22222x2x2xx4-|
E|-44444-22222-00000x0x0xx2-|x4

Solo:
e|-----2-------------------------------------------------------|
B|-------5p4p2-------4h5-4h5-7-5-4-------7-5-4---4-------------|
G|---4---------4-4h6---------------6-4-4-------6---6-4-6p4-3---|
D|-----------------------------------------------------------4-|
A|-------------------------------------------------------------|
E|-------------------------------------------------------------|

--------------------------------------------------------------|
--------------------------------------------------------------|
--1-3-4-6-8-9-11-13p11-9-8---12xx-11xx-9-9-----------8--------|
-------------------------------------------888-8b--9---11b-9--|
--------------------------------------------------------------|
--------------------------------------------------------------|

Verse Palm Muted For a bit
Chorus x2
Bridge

Chorus or This: (There's 2 guitars)
g|-----------------|
d|---16------14-13-|
a|14----14-16------|
e|-----------------|

Chorus
Bridge


Tabbed By: Livergood a.k.a. xCKYx666xHIMx
Comments