Midnight Movies - Just To Play Chords & Tabs

 

Just To Play Chords & Tabs

Midnight Movies Chords & Tabs

Version: 1 Type: Tab 0 ratings
1 star 2 stars 3 stars 4 stars 5 stars
comments

Just To Play Tab

These people are really cool kindof an airy rock sound. If you like the sound of Nico's
voice you'll love Midnight movies. The singer sounds just like Nico, its kinda creepy
even. Thier album is selftitled and well worth the money. This is just the bare minimum
of this song but its fun just to play.(sorry 4 the cheese) Just To Play - Midnight Movies
-------------------------------------------------------------------------------
Tabbed by:zenchicken13
Email:zenchicken13@yahoo.com
[ Tab from: http://www.guitartabs.cc/tabs/m/midnight_movies/just_to_play_tab.html ]
Tuning:standard
THis is the entire verse over and over again X8
e|---------------------------------------------------------------------------|
B|---------------------------------------------------------------------------|
G|---------------------------------------------------------------------------|
D|-----------9------9-----9-----10-9---9-------------------------------------|
A|------7-7----7-7----7-7---7-7------7---------------------------------------|
E|---------------------------------------------------------------------------|
and below is the chorus
e|---------------------------------------------------------------------------|
B|---------------------------------------------------------------------------|
G|---------------------------------------------------------------------------|
D|------------7-----7-----7-----7-----7-----7-----7-----7-7-8-9--------------|
A|--------5-5---5-5---5-5---5-5---5-5---5-5---5-5---5-5----------------------|
E|---------------------------------------------------------------------------|
toward the end they just hit down on the verse part for a while
Comments