Middleton Malcolm - Bird Watcher Chords & Tabs

 

Bird Watcher Chords & Tabs

Middleton Malcolm Chords & Tabs

Version: 1 Type: Tab 0 ratings
1 star 2 stars 3 stars 4 stars 5 stars
comments

Bird Watcher Tab

birdwatcher 
by malcolm middleton
tab: well by malcolm he told me on the hug and pint website
person to be arsed to type it up:joe walker 
sunday nov 21 2004
SEND YOUR COMPLAINTS TO joewalker2004@hotmail.com


TUNE G STRING DOWN TO F

ACOUSTIC GUITAR
e-------------------------------------------------------------------
b-------------------------------------------------------------------
f---------5--4-------4---2-------0------0---------------------------
d------(0)----(0)------0---0--------0-----0------------------------- 
a-----5----5------3-----------1-------------1/----3----------------- THIS IS NOT
E------------------------------------------------------------------- PERFECT JUST 
                                                                     A BLUEPRINT OF WAT
                                                                     NOTES TO PLAY
ACOUSTIC FILLS(DUBS)
e-------------8-----------------------------------------------------
b-----5--6----------------------------------5--6--3------5--6-5/3/5/3(SILDE)
f-------------------------5----7------------------------------------
d-------------------------------------8-----------------------------
a------------------------------------------------------------------- 
E------------------------------------------------------------------- 

[ Tab from: http://www.guitartabs.cc/tabs/m/middleton_malcolm/bird_watcher_tab.html ]
ELECTRIC GUITAR 2:35(?)
e----------8--------------------10-/--8------/6/5------/(3)-------------
b-------------------------------------------------------------------
f-------------------------------------------------------------------
d-------------------------------------------------------------------
a-------------------------------------------------------------------
E-------------------------------------------------------------------

e------3--5---6----5---1-----10---8---10---5---5--6---8-------------
b-------------------------------------------------------------------
f-------------------------------------------------------------------
d-------------------------------------------------------------------
a-------------------------------------------------------------------
E-------------------------------------------------------------------

e-----10/-----1--------6---5---10--8------10--/--5---6--/--1--------
b-------------------------------------------------------------------
f-------------------------------------------------------------------
d-------------------------------------------------------------------
a-------------------------------------------------------------------
E-------------------------------------------------------------------




NOT THAT WAS'NT TO BAD WAS IT.... MORE SHITTY ARAB STRAP TABS R UP AS WELL


Comments