Middle Class Fool - Better Place Chords & Tabs

 

Better Place Chords & Tabs

Middle Class Fool Chords & Tabs

Version: 1 Type: Bass Tab 0 ratings
1 star 2 stars 3 stars 4 stars 5 stars
comments

Better Place Bass Tab

www.middleclassfool.co.uk
Tabber: Middleclasssam
Tab:Better Place
Artist: Middle Class Fool


Verses-
G---------------------------------------|
D---------------------------------------|
A----777-77-----------------------------|
E--00-------777-55----------------------|
[ Tab from: http://www.guitartabs.cc/tabs/m/middle_class_fool/better_place_btab.html ]
Chorus-
G---------------------------------------|
D---------------------------------------|
A-7777----------------------------------|X3
E-----7777-9999-5555--------------------| 

G---------------------------------------|
D---------------------------------------|
A-7777---------12~----------------------|
E-----7777-99---------------------------|
Comments