Mid Youth Crisis - Know Something Chords & Tabs

 

Know Something Chords & Tabs

Mid Youth Crisis Chords & Tabs

Version: 1 Type: Bass Tab 0 ratings
1 star 2 stars 3 stars 4 stars 5 stars
comments

Know Something Bass Tab

------------------------------------------------------------------
		KNOW SOMETHING - Mid Youth Crisis
------------------------------------------------------------------
By: Dave Wilson (nougeypooge@hotmail.com for requests)
[ Tab from: http://www.guitartabs.cc/tabs/m/mid_youth_crisis/know_something_btab.html ]
Intro
G|----------------------------------------------------5-5-5--4-4-|
D|------2-2-2-0-0-3-3-3-2-2-0-0-------3-3-3-2-2-3-3-3------------|
A|0-0-0-------------------------3-3-3----------------------------|
E|---------------------------------------------------------------|

G|---------------------------------------------------------------|
D|------2-2-2-0-0-3-3-3-2-2-0-0----------------------------------|
A|0-0-0--------------------------3-3-3-3-3-3-3-3-2-2-2-1-1-1-0---|
E|---------------------------------------------------------------|

Comments