Microphones - Moon Chords & Tabs

 

Moon Chords & Tabs

Microphones Chords & Tabs

Version: 1 Type: Tab 0 ratings
1 star 2 stars 3 stars 4 stars 5 stars
comments

Moon Tab

Microphones - The Moon
Written by Phil Elvrum
Tabbed by Josh Sharp (tabs at killthelight dot net)

I tabbed this from the acoustic version on 'Song Islands'.
The structure doesn't differ too greatly except that once
the vocals start it doesn't get vastly faster like on
the 'studio' version. And no horns :)

INTRO
He plays around with the chords a bit, adding notes,
but this is the basic riff.
[ Tab from: http://www.guitartabs.cc/tabs/m/microphones/moon_tab.html ]
  			  x3	then
e----------------------|--------------------------|
B----------------------|--------------------------|
G-------2------------o-|--------------------------|
D----0------0--------o-|-----------0--------------|
A-2--------------------|--0--2--4-----------------|
E----------------------|--------------------------|

  			  x4
e----------------------|
B----------------------|
G-------2------------o-|
D----0------0--------o-|
A----------------------|
E-3--------------------|


VERSE (w/intro pattern faster)

CHORUS
e---------------------------------------------------|
B---------------------------------------------------|
G-------------------------------------------------o-|
D-------------------------------------------------o-|
A-2-------------------------------5---4---2----0----|
E---------------------------------------------------|
Comments