Mick405 - Acoustic Guitar Song Chords & Tabs

 

Acoustic Guitar Song Chords & Tabs

Mick405 Chords & Tabs

Version: 1 Type: Tab 2 ratings
1 star 2 stars 3 stars 4 stars 5 stars
comments

Acoustic Guitar Song Tab

   
Tabbed by: mick405
Email: coolmick46@hotmail.com

Tuning: standard

this is a nice acoustic guitar song that i came up with as i was playing on day
 
note: this should be played relatively fast.

e|------------0--3--0-----------------1--------------------------------------|
B|-1-----1--------------1------------------3---1----0-----3------------------|
G|----0---------------------0----2------------------0--------0---------------|
D|--------------------------2----3------------------------------3------------|
A|-3-------------------------------------------------------------------------|
E|---------------------------------------------------------------------------|

e|----------0--3--0----------------------------------------------------------|
B|-1-----1-----------1--------3-----0--1-------------------------------------|
G|----0-----------------0--2-----0-------0-----------------------------------|
D|-2--------------------2--3-----0---------2---------------------------------|
A|-------------------------------------3-----3-------------------------------|
E|---------------------------------------------------------------------------|

e|------0-------------------0------------------------------------------------|
B|-3--------3----------3----------3------------------------------------------|
G|---0--------0-0-0------0----0-----0-0-0------------------------------------|
D|---------------------------------------------------------------------------|
A|-2----3---2----------2----3-----2------------------------------------------|
E|---------------------------------------------------------------------------|

e|------------------0--------------------------------------------------------|
B|-0-----1-----3-----------0--0--1-------------------------------------------|
G|---0-----0-----0----0------------2--0-0-0-0--------------------------------|
D|-------------------------0-----0-------------------------------------------|
A|-------0-----2----3--------------------------------------------------------|
E|-3----------------------------------3--------------------------------------|
[ Tab from: http://www.guitartabs.cc/tabs/m/mick405/acoustic_guitar_song_tab.html ]
e|-3---0--1---------0--------------------------------------------------------|
B|-------------3---------1----0----------------------------------------------|
G|---0------0----0----0----0----0-0-0----------------------------------------|
D|-2---------------------2----0----------------------------------------------|
A|-----3--0----2----3--------------------------------------------------------|
E|---------------------------------------------------------------------------|

e|-3----0----1----------0----------------------------------------------------|
B|----------------3----------1-----0-----------------------------------------|
G|---0----0----0-----0----0----0-----0---------------------------------------|
D|-2-----------------------------------3-0-----------------------------------|
A|------3----0----2-----3----0-----------------------------------------------|
E|---------------------------------3-----------------------------------------|

e|-------0-3-0---------1-----------------------------------------------------|
B|-1---1--------0--------3--1--0---3-----------------------------------------|
G|---0------------0--2---------0------0--------------------------------------|
D|---------2---------3------------------3------------------------------------|
A|-3-------------------------------------------------------------------------|
E|---------------------------------------------------------------------------|

e|-------0---0-----1--0------------------------------------------------------|
B|-1---1---------3----0--1--3--0---1-----------------------------------------|
G|---0---------2----------------------0--------------------------------------|
D|-2---------3------------------------2--------------------------------------|
A|---------------------------------3-----3-----------------------------------|
E|--------------------------3------------------------------------------------|

and thats that.


| /  slide up
| \  slide down
| h  hammer-on
| p  pull-off
| ~  vibrato
| +  harmonic
| x  Mute note
===============================================================================	
Comments