Michelle Branch - You Get Me Chords & Tabs

 

You Get Me Chords & Tabs

Michelle Branch Chords & Tabs

Version: 1 Type: Bass Tab 0 ratings
1 star 2 stars 3 stars 4 stars 5 stars
comments

You Get Me Bass Tab

#----------------------------------PLEASE NOTE---------------------------------#
#This file is the author's own work and represents their interpretation of the #
#song. You may only use this file for private study, scholarship, or research. #
#------------------------------------------------------------------------------#



Michelle Branch
You Get Me
Transcribed By Cliff Wang 

Note : you must listen to the song for the rythm. This is a very good song and
you some parts may be tricky. Feel free to improvise and make it sound better 
or the way you want it to sound. 

 Verse 1st time						     Verse 2nd time
G--7----6----4------------------------7-----7-----7-|7--8-9---6-6/7-4---4/6-
D-----------------7---5-------5---7-9---7-9---7-9---|------------------------
A------------------------5h7------------------------|------------------------
E---------------------------------------------------|------------------------

				    Pre-chorus 			Chorus
---------------------------|-------------------------|-----------------------
7---5--------5--7-8-7-5----|-------------------------|-----------------------
--------5h7-------------7--|-7--7/9----------7-7/9---|--5--7\5---------------
---------------------------|--------5---5-5---------5|---------3-3\0--0-3/5-

-----------------------------------------------------------------------------
-----------------------------------------------------------------------------
---5--7\5---------------------5--7\5-------------------7---9\7----9\7-7----5-
5---------3-3\0--0-3/5---5-5---------3-3\0--0-3/5--5-----------5--------5----

				Verse 3rd time			   Verse 4th 
-7h9-7----7-----------|-------------------------------------------|----------
------7h9---9-7-------|--------------------------5h7-5---5--------|-----7h9--
----------------9-7-5-|-5----4----2--------------------7---7-7/5--|--5-------
----------------------|----------------5---5/3-3------------------|----------
[ Tab from: http://www.guitartabs.cc/tabs/m/michelle_branch/you_get_me_btab.html ]
					  Pre-chorus
----------------------------------------|------------9h11--------------------
----------------------------------------|----------9-------------------------
-4-4/5\3--3---------------0-1-0-------7-|-7---7-7-----------------5-4---7--7-
------------5-5\3--3-3--3-------3-0-----|-----------------5--5-5-----5-------

		  Chorus
-----------------|---------------------------------------------------9-9-9---
-----------------|--------------------------------------------------------9--
9-10/5--------4-5|-5--7\5-----------------5--7\5------------------7--------7-
------5-5-5-7----|--------3-3\0--0-3/5--5--------3-3\0--0-3/5--5-------------

					      Solo
--------------9-9-9-9h11-9------------7-7-7--|-------------------------------
---7-7-7-------------------9---------------7-|-------------------------------
--------7--7----------------0--5---5--------5|-5-4---4-2---2-0--0------------
5--------5-----------------------------------|-------------------3--3----3-3-

			Pre-Chorus
----------------|---9-9-9------------------9-9-9-9h11------------------------
----------------|--------9----7-7-7------------------9-----------------------
----------------|-7-------7--------5h7---7------------0--0-0----0---0-0-----4
-3--3--3-3-5-3--|-----------5---------5----------------------------------5-7-

Chorus
|----------------------------------------------------------------------------
|----------------------------------------------------------------------------
|5--7\5-----------------5--7\5----------------7-5--7\5-----------------5--7\5
|------3-3\0--0-3/5--5--------3-3\0--0-3/5--5---------3-3\0--0-3/5--5--------

--------------------------------------------------------------------9-9-9----
---------------------------------------------------------7-7-7-----------9---
----------------5--7\5----------------7---7-7-7-7h9-7/5-------7---7-------7--
3-3\0--0-3/5--5-------3-3\0--0-3/5--5------------------5-------5-------------

   Ending (Hold Last Note)
--|--------------------------------------------------------------------------
--|-------------------------------5--7-8-7-5---------------------------------
--|-5-5---4-4---2-2-------------------------7-5------------------------------
-5|------------------5-5--3---3-3--------------------------------------------
Comments