Michelle Branch - Tuesday Morning Chords & Tabs

 

Tuesday Morning Chords & Tabs

Michelle Branch Chords & Tabs

Version: 3 Type: Tab 0 ratings
1 star 2 stars 3 stars 4 stars 5 stars
comments

Tuesday Morning Tab

   
-----------------------------------------------------------------------------
			     TUESDAY MORNING - Michelle Branch
-----------------------------------------------------------------------------
Tabbed by:Bela
Email:crazy_fairy87@hotmail.com

Tuning:standard EADGBe

Please note that this is my first tab and i have never actually been tought
properly how to tab etc so go easy.  Also these are completely right, hope the
part where i get it down in writing is as correct as i think it is.  Good luck
in trying to figure it out.


INTRO / VERSE 1: (x1 for intro, x2 for verse)
e|--3----3----3---2----2----2---0---0----0---2----2---2----------------------|
B|---3----3----3---3----3----3---3---3----3---3----3---3---------------------|
G|----0----0--------0----0--------0---0--------0----0------------------------|
D|---------------------------------------------------------------------------|
A|---------------------------------------------------------------------------|
E|---------------------------------------------------------------------------|

VERSE 1:  
I remember, stormy weather
The way the sky looks when it's cold
And you were with me, content with walking
So unaware of the world

PRE-CHORUS: D, Em, C*, C* (x4)
e|----------2---0---3---3----------------------------------------------------|
B|----------3---0---3---3----------------------------------------------------|
G|----------2---0---0---0----------------------------------------------------|
D|----------0---2---2---2----------------------------------------------------|
A|----------0---2---3---3----------------------------------------------------|
E|----------0---0---0---0----------------------------------------------------|

PRE-CHORUS:
Please don't drive me home tonight
Cos I don't wanna feel alone
Please don't drive me home tonight
Cos I don't wanna go

CHORUS 1: G, D, Em, C*
e|------3--2---0--3----------------------------------------------------------|
B|------3--3---0--3----------------------------------------------------------|
G|------0--2---0--0----------------------------------------------------------|
D|------0--0---2--2----------------------------------------------------------|
A|------2--0---2--3----------------------------------------------------------|
E|------3--0---0--0----------------------------------------------------------|

CHORUS 1:
Tuesday morning, in the dark
I was finding out who you are.

VERSE 2: G, D*, C*, D*
e|-------3--2---3---2--------------------------------------------------------|
B|-------3--3---3---3--------------------------------------------------------|
G|-------0--0---0---0--------------------------------------------------------|
D|-------0--0---2---0--------------------------------------------------------|
A|-------2--0---3---0--------------------------------------------------------|
E|-------3--0---0---0--------------------------------------------------------|
[ Tab from: http://www.guitartabs.cc/tabs/m/michelle_branch/tuesday_morning_tab_ver_3.html ]
VERSE 2:
I took your picture
While you were sleeping
Then I paced around the room
If I had known then
That these things happen
Would they have happened with you, oh -oh

PRE-CHORUS: (repeat as before)

CHORUS 2: (same chords as before)
Tuesday Morning, in the dark
I was finding out, who I was

BRIDGE: Em, G, D, C* (x2)
e|-------0--3--2--3----------------------------------------------------------|
B|-------0--3--3--3----------------------------------------------------------|
G|-------0--0--2--0----------------------------------------------------------|
D|-------2--0--0--2----------------------------------------------------------|
A|-------2--2--0--3----------------------------------------------------------|
E|-------0--3--0--0----------------------------------------------------------|

BRIDGE:
And if you turned around to see me
And I was gone, oh-oh-oh-oh
Should have looked outside your window
Cos the sun was coming u-uh-uh-p

Solo: (this begins on the "u-uh-uh-p" part of the song. There is a bit of wailing
here so you can work out how she sings it.)
      G, D, Em, C*     (same chords as the chorus.)
e|----3--2---0--3------------------------------------------------------------|
B|----3--3---0--3------------------------------------------------------------|
G|----0--2---0--0------------------------------------------------------------|
D|----0--0---2--2------------------------------------------------------------|
A|----2--0---2--3------------------------------------------------------------|
E|----3--0---0--0------------------------------------------------------------|

PRE-CHORUS: (same chords as before)
Please don't drive me home tonight
Cos I don't wanna feel alone

CHORUS: (Picking the "INTRO / VERSE" again while singing in lower key)
e|--3----3----3---2----2----2---0---0----0---2----2---2----------------------|
B|---3----3----3---3----3----3---3---3----3---3----3---3---------------------|
G|----0----0--------0----0--------0---0--------0----0------------------------|
D|---------------------------------------------------------------------------|
A|---------------------------------------------------------------------------|
E|---------------------------------------------------------------------------|

CHORUS 3:  
Tuesday morning, in the dark

***PAUSE***
CHORUS 3: (Start strumming again and back to higher key when singing.)
      G, D, Em, C*
e|----3--2---0--3------------------------------------------------------------|
B|----3--3---0--3------------------------------------------------------------|
G|----0--2---0--0------------------------------------------------------------|
D|----0--0---2--2------------------------------------------------------------|
A|----2--0---2--3------------------------------------------------------------|
E|----3--0---0--0------------------------------------------------------------|

CHORUS 3:
We were finding out who we are.
Tuesday morning, in the dark
We were finding out who we are.
(More wailing and blah blah...)
Who we are.  
(End on C*)

Hope that wasn't too difficult to understand and if it was I'm sorry!
Comments