Michelle Branch - Ill Always Be Right There Chords & Tabs

 

Ill Always Be Right There Chords & Tabs

Michelle Branch Chords & Tabs

Version: 1 Type: Tab 0 ratings
1 star 2 stars 3 stars 4 stars 5 stars
comments

Ill Always Be Right There Tab

Song: I'll always be right there
Artist: MIchelle Branch
Transcribed by: Chris Berry

NOTE: The rhythm might be more or less than the 4 strums indicated, i just did that to show what it would 
like.

                                            x4
E------------------------------------------|
B------------------------------------------|
G--8-8-8-8---8-8-8-8---5-5-5-5---7-7-7-7---|
D--8-8-8-8---8-8-8-8---5-5-5-5---8-8-8-8---|
A--6-6-6-6---5-5-5-5---3-3-3-3---8-8-8-8---|
E--------------------------------6-6-6-6---|
[ Tab from: http://www.guitartabs.cc/tabs/m/michelle_branch/ill_always_be_right_there_tab.html ]
                         x2
E------------------------|
B------------------------|
G---5-5-5-5---7-7-7-7----|
D---6-6-6-6---8-8-8-8----|
A---6-6-6-6---8-8-8-8----|
E---4-4-4-4---6-6-6-6----|
                                           x4
E------------------------------------------|
B------------------------------------------|
G--8-8-8-8---8-8-8-8---5-5-5-5---7-7-7-7---|
D--8-8-8-8---8-8-8-8---5-5-5-5---8-8-8-8---|
A--6-6-6-6---5-5-5-5---3-3-3-3---8-8-8-8---|
E--------------------------------6-6-6-6---|
                         x2
E------------------------|
B------------------------|
G---5-5-5-5---7-7-7-7----|
D---6-6-6-6---8-8-8-8----|
A---6-6-6-6---8-8-8-8----|
E---4-4-4-4---6-6-6-6----|
                                                x2
E-----------------------------------------------|
B-----------------------------------------------|
G-2-2-2-2---5-5-5-5---5-5-5-5-----7-7-7-7-------|
D-3-3-3-3---6-6-6-6---5-5-5-5-----8-8-8-8-------|
A-3-3-3-3---6-6-6-6---3-3-3-3-----8-8-8-8-------|
E-1-1-1-1---4-4-4-4---------------6-6-6-6-------|

E------------------------------------------|
B------------------------------------------|
G--8-8-8-8---8-8-8-8---5-5-5-5---7-7-7-7---|
D--8-8-8-8---8-8-8-8---5-5-5-5---8-8-8-8---|
A--6-6-6-6---5-5-5-5---3-3-3-3---8-8-8-8---|
E--------------------------------6-6-6-6---|
                         x2
E------------------------|
B------------------------|
G---5-5-5-5---7-7-7-7----|
D---6-6-6-6---8-8-8-8----|
A---6-6-6-6---8-8-8-8----|
E---4-4-4-4---6-6-6-6----|
                                           x2
E------------------------------------------|
B------------------------------------------|
G--8-8-8-8---8-8-8-8---5-5-5-5---7-7-7-7---|
D--8-8-8-8---8-8-8-8---5-5-5-5---8-8-8-8---|
A--6-6-6-6---5-5-5-5---3-3-3-3---8-8-8-8---|
E--------------------------------6-6-6-6---|
         Let Fade...
E--------|
B---8----|
G---8----|
D---8----|
A---6----|
E--------|
Comments