Michelle Branch - Here With Me Chords & Tabs

 

Here With Me Chords & Tabs

Michelle Branch Chords & Tabs

Version: 2 Type: Chords 0 ratings
1 star 2 stars 3 stars 4 stars 5 stars
comments

Here With Me Chords

   
Here with me
Michelle branch
Tabbed by Mariano Arnaiz
Any thing to: marianoarnaiz@hotmail.com

USE THE CAPO ON THE THIRD FRET

Intro:

      Am         Em?
e------0----------0---------
B-----1-1----------1--------
G----2---2-------0--0-------   x2
D---2-----2-----2-----2-----  
A--o-----------2------------
E-------------0-------------


Verse:
 
Guitar 1

     Am         Em?
e------0----------0---------
B-----1-1----------1--------
G----2---2-------0--0-------   x2
D---2-----2-----2-----2-----  
A--o-----------2------------
E-------------0-------------

Then play this
      Am         Em?       Dm
e------0----------0---------1-----1-------
B-----1-1----------1-------3-3---3---3----
G----2---2-------0--0-----2---2-2-------2-   
D---2-----2-----2-----2--0-----0----------  
A--o-----------2--------------------------
E-------------0---------------------------

Guitar 2 (Light ditortion)

  Am          Em      
e--0-----------0--
B--1-----------0--
G--2-----------0--  x2 
D--2-----------2--  
A--o-----------2--
E--------------0--

Then play this

  Am          Em      Dm
e--0-----------0--------1--
B--1-----------0--------3--
G--2-----------0--------2--   
D--2-----------2--------0--  
A--o-----------2-----------
E--------------0-----------

Repeat the verse.


[ Tab from: http://www.guitartabs.cc/tabs/m/michelle_branch/here_with_me_crd_ver_2.html ]
Chorus (both guitars)


                  Am    C*      Em          F
I know you had to go   away, I died just a little
      Am      G              Em    F
And I feel it now you're the one I need
    Am         C*       Em         F
I believe that I would cry just a little
        Am       G        Em        Am
Just to have you back now here with me, here with me.

Verse 2 
The same that verse 1 but do not repeat it.



Interlude (only guitar one)

Em           C*
     And I'm asking
Em          C*              Dm
    And I'm wanting you to come back to me please


Verse 3
The same that verse 1, do not repeat it and the guitar enter first macking
some kind of intro for the verse.

Chorus (both guitars)

                  Am    C*      Em          F
I know you had to go   away, I died just a little
      Am      G              Em    F
And I feel it now you're the one I need
    Am         C*       Em         F
I believe that I would cry just a little
        Am       G        Em        G             Am
Just to have you back now here with me, here with me.



C*: -32033
Comments