Michelle Branch - Goodbye To You Chords & Tabs

 

Goodbye To You Chords & Tabs

Michelle Branch Chords & Tabs

Version: 3 Type: Tab 0 ratings
1 star 2 stars 3 stars 4 stars 5 stars
comments

Goodbye To You Tab

   
Title: Goodbye to You
Artist: Michelle Branch
Tabbed by: Lendon Wall

*Note: this is the tab for the radio edit/acoustic version, not the album version.*

Intro:

   C9      D9/G      G         G   C9
   1 & 2 & 3 & 4 &   1 & 2 & 3 & 4 &
E|-3---3---5-0---5-|-3---3-----3---3-|
B|-3---3---5-5---5-|-3---3-----3---3-|
G|-0---0---0-0---0-|-0---0-----0---0-| x2
D|-3---3---4-4---4-|-0---0-----0---2-|
A|-0h2-2---5-5---5-|-2---2-----2---3-|
E|-x---x---x-x---x-|-3---3-----3---x-|


(Verse 1)

   C9      D9/G      G         G   C9
   1 & 2 & 3 & 4 &   1 & 2 & 3 & 4 &
E|-3---3---5-0---5-|-3---3-----3---3-|
B|-3---3---5-5---5-|-3---3-----3---3-|
G|-0---0---0-0---0-|-0---0-----0---0-|
D|-3---3---4-4---4-|-0---0-----0---2-|
A|-0h2-2---5-5---5-|-2---2-----2---3-|
E|-x---x---x-x---x-|-3---3-----3---x-|
         of all the things I believed in...

   C9      D9/G      G         G   C9
   1 & 2 & 3 & 4 &   1 & 2 & 3 & 4 &
E|-3---3---5-0---5-|-3---3-----3---3-|
B|-3---3---5-5---5-|-3---3-----3---3-|
G|-0---0---0-0---0-|-0---0-----0---0-| 
D|-3---3---4-4---4-|-0---0-----0---2-|
A|-0h2-2---5-5---5-|-2---2-----2---3-|
E|-x---x---x-x---x-|-3---3-----3---x-|
         I just wanna get it over with...

   C9      D9/G     G       Dsus4/F# Em7**   
   1 & 2 & 3 & 4 &   1 & 2 & 3 & 4 &   1 & 2 & 
E|-3---3---5-0---5-|-3---3---3---3---|-3---3---|
B|-3---3---5-5---5-|-3---3---3---3---|-3---3---|
G|-0---0---0-0---0-|-0---0---2---2---|-0---0---|
D|-3---3---4-4---4-|-0---0---0---0---|-2---2---|
A|-0h2-2---5-5---5-|-2---2---0---0---|-2---2---|
E|-x---x---x-x---x-|-3---3---2---2---|-0---0---|
     tears form behind my eyes but I do not cry...

**I not sure how this measure fits in, but I'm guessing she switchs to 2/4 time for 1 measure.


   A7                C         G   C9
   1 & 2 & 3 & 4 &   1 & 2 & 3 & 4 &
E|-0---0---0---0---|-0---0-----3---3-|
B|-2---2---2---2---|-1---1-----3---3-|
G|-0---0---0---0---|-0---0-----0---0-|
D|-2---2---2---2---|-2---2-----0---3-|
A|-0---0---0---0---|-3---3-----3---2-|
E|-0---0---0---0---|-0---0-----2---x-|
   counting the days that pass me by...


(Verse 2)

   C9      D9/G     G        G   C9
   1 & 2 & 3 & 4 &   1 & 2 & 3 & 4 &
E|-3---3---5-0---5-|-3---3-----3---3-|
B|-3---3---5-5---5-|-3---3-----3---3-|
G|-0---0---0-0---0-|-0---0-----0---0-|
D|-3---3---4-4---4-|-0---0-----0---2-|
A|-0h2-2---5-5---5-|-2---2-----2---3-|
E|-x---x---x-x---x-|-3---3-----3---x-|
     I've been searching deep down in m'soul...

   C9      D9/G     G        G   C9
   1 & 2 & 3 & 4 &   1 & 2 & 3 & 4 &
E|-3---3---5-0---5-|-3---3-----3---3-|
B|-3---3---5-5---5-|-3---3-----3---3-|
G|-0---0---0-0---0-|-0---0-----0---0-| 
D|-3---3---4-4---4-|-0---0-----0---2-|
A|-0h2-2---5-5---5-|-2---2-----2---3-|
E|-x---x---x-x---x-|-3---3-----3---x-|
     words that I'm hearing are starting to get old...

   C9      D9/G      G  Ds4/F# Em7
   1 & 2 & 3 & 4 &   1 & 2 & 3 & 4 &
E|-3---3---5-0---5-|-3---3---3-------|
B|-3---3---5-5---5-|-3---3---3-------|
G|-0---0---0-0---0-|-0---2---0-------|
D|-3---3---4-4---4-|-0---0---2-------|
A|-0h2-2---5-5---5-|-2---0---2-------|
E|-x---x---x-x---x-|-3---2---0-------|
     feels like I'm starting all over again...

   A7                C         
   1 & 2 & 3 & 4 &   1 & 2 & 3 & 4 &
E|-0-0-0-0-0-0-0-0-|-0-0-0-0-0-0-0-1-|
B|-2-2-2-2-2-2-2-2-|-1-1-1-1-1-1-1-1-|
G|-0-0-0-0-0-0-0-0-|-0-0-0-0-0-0-0-0-|
D|-2-2-2-2-2-2-2-2-|-2-2-2-2-2-2-2-2-|
A|-0-0-0-0-0-0-0-0-|-3-3-3-3-3-3-3-3-|
E|-0-0-0-0-0-0-0-0-|-0-0-0-0-0-0-0-0-|
   last 3 years were just pretend, and I said...




(Chorus)

   G      Dsus4/F#   Em7       Em7 C9
   1 & 2 & 3 & 4 &   1 & 2 & 3 & 4 &
E|-3-------3-------|-3---------3---3-|
B|-3-------3-------|-3---------3---3-|
G|-0-------2-------|-0---------0---0-|
D|-0-------0-------|-2---------2---2-|
A|-2-------0-------|-2---------2---3-|
E|-3-------2-------|-0---------0---0-|
       Goodbye to you..........goodbye to...

   G      Dsus4/F#   Em7       Em7 C9
   1 & 2 & 3 & 4 &   1 & 2 & 3 & 4 &
E|-3-------3-------|-3---------3---3-|
B|-3-------3-------|-3---------3---3-|
G|-0-------2-------|-0---------0---0-|
D|-0-------0-------|-2---------2---2-|
A|-2-------0-------|-2---------2---3-|
E|-3-------2-------|-0---------0---0-|
   ev'rything I though I knew...

   G      Dsus4/F#   Em7    
   1 & 2 & 3 & 4 &   1 & 2 &
E|-3-------3-------|-3-------|
B|-3-------3-------|-3-------|
G|-0-------2-------|-0-------|
D|-0-------0-------|-2-------|
A|-2-------0-------|-2-------|
E|-3-------2-------|-0-------|
     you were the one I loved...the...

   A7                C         
   1 & 2 & 3 & 4 &   1 & 2 & 3 & 4 &
E|-0-0-0-0-0-0-0-0-|-0-0-0-0-0-0-0-1-|
B|-2-2-2-2-2-2-2-2-|-1-1-1-1-1-1-1-1-|
G|-0-0-0-0-0-0-0-0-|-0-0-0-0-0-0-0-0-|
D|-2-2-2-2-2-2-2-2-|-2-2-2-2-2-2-2-2-|
A|-0-0-0-0-0-0-0-0-|-3-3-3-3-3-3-3-3-|
E|-0-0-0-0-0-0-0-0-|-0-0-0-0-0-0-0-0-|
   one thing that I tried to hold on too...



(verse 3)

   C9      D9/G     G        G   C9
   1 & 2 & 3 & 4 &   1 & 2 & 3 & 4 &
E|-3---3---5-0---5-|-3---3-----3---3-|
B|-3---3---5-5---5-|-3---3-----3---3-|
G|-0---0---0-0---0-|-0---0-----0---0-|
D|-3---3---4-4---4-|-0---0-----0---2-|
A|-0h2-2---5-5---5-|-2---2-----2---3-|
E|-x---x---x-x---x-|-3---3-----3---x-|
     and I still get lost in your eyes...

   C9      D9/G     G        G   C9
   1 & 2 & 3 & 4 &   1 & 2 & 3 & 4 &
E|-3---3---5-0---5-|-3---3-----3---3-|
B|-3---3---5-5---5-|-3---3-----3---3-|
G|-0---0---0-0---0-|-0---0-----0---0-| 
D|-3---3---4-4---4-|-0---0-----0---2-|
A|-0h2-2---5-5---5-|-2---2-----2---3-|
E|-x---x---x-x---x-|-3---3-----3---x-|
     and it seems that I can't live a day without you...

   C9      D9/G      G  Ds4/F# Em7
   1 & 2 & 3 & 4 &   1 & 2 & 3 & 4 &
E|-3---3---5-0---5-|-3---3---3-------|
B|-3---3---5-5---5-|-3---3---3-------|
G|-0---0---0-0---0-|-0---2---0-------|
D|-3---3---4-4---4-|-0---0---2-------|
A|-0h2-2---5-5---5-|-2---0---2-------|
E|-x---x---x-x---x-|-3---2---0-------|
     closin' my eyes and you chase m'thoughs away...to a...

   A7                C         
   1 & 2 & 3 & 4 &   1 & 2 & 3 & 4 &
E|-0-0-0-0-0-0-0-0-|-0-0-0-0-0-0-0-1-|
B|-2-2-2-2-2-2-2-2-|-1-1-1-1-1-1-1-1-|
G|-0-0-0-0-0-0-0-0-|-0-0-0-0-0-0-0-0-|
D|-2-2-2-2-2-2-2-2-|-2-2-2-2-2-2-2-2-|
A|-0-0-0-0-0-0-0-0-|-3-3-3-3-3-3-3-3-|
E|-0-0-0-0-0-0-0-0-|-0-0-0-0-0-0-0-0-|
   place where I am blinded by the light, but it's not right...




(Chorus)
[ Tab from: http://www.guitartabs.cc/tabs/m/michelle_branch/goodbye_to_you_tab_ver_3.html ]
   G      Dsus4/F#   Em7       Em7 C9
   1 & 2 & 3 & 4 &   1 & 2 & 3 & 4 &
E|-3-------3-------|-3---------3---3-|
B|-3-------3-------|-3---------3---3-|
G|-0-------2-------|-0---------0---0-|
D|-0-------0-------|-2---------2---2-|
A|-2-------0-------|-2---------2---3-|
E|-3-------2-------|-0---------0---0-|
       Goodbye to you..........goodbye to...

   G      Dsus4/F#   Em7       Em7 C9
   1 & 2 & 3 & 4 &   1 & 2 & 3 & 4 &
E|-3-------3-------|-3---------3---3-|
B|-3-------3-------|-3---------3---3-|
G|-0-------2-------|-0---------0---0-|
D|-0-------0-------|-2---------2---2-|
A|-2-------0-------|-2---------2---3-|
E|-3-------2-------|-0---------0---0-|
   ev'rything I though I knew...

   G      Dsus4/F#   Em7    
   1 & 2 & 3 & 4 &   1 & 2 &
E|-3-------3-------|-3-------|
B|-3-------3-------|-3-------|
G|-0-------2-------|-0-------|
D|-0-------0-------|-2-------|
A|-2-------0-------|-2-------|
E|-3-------2-------|-0-------|
     you were the one I loved...the...

   A7                C         
   1 & 2 & 3 & 4 &   1 & 2 & 3 & 4 &
E|-0-0-0-0-0-0-0-0-|-0-0-0-0-0-0-0-1-|
B|-2-2-2-2-2-2-2-2-|-1-1-1-1-1-1-1-1-|
G|-0-0-0-0-0-0-0-0-|-0-0-0-0-0-0-0-0-|
D|-2-2-2-2-2-2-2-2-|-2-2-2-2-2-2-2-2-|
A|-0-0-0-0-0-0-0-0-|-3-3-3-3-3-3-3-3-|
E|-0-0-0-0-0-0-0-0-|-0-0-0-0-0-0-0-0-|
   one thing that I tried to hold on too...



(Bridge)
 
   C9                G
   1 & 2 & 3 & 4 &   1 & 2 & 3 & 4 &
E|-3---3---3-3---3-|-3---3-----3---3-|
B|-3---3---3-3---3-|-3---3-----3---3-|
G|-0---0---0-0---0-|-0---0-----0---0-|
D|-3---3---3-3---3-|-0---0-----0---0-| 
A|-2---2---2-2---2-|-3---3-----3---3-|
E|-x---x---x-x---x-|-2---2-----2---2-|

   C9                G
   1 & 2 & 3 & 4 &   1 & 2 & 3 & 4 &
E|-3---3---3-3---3-|-3---3-----3---3-|
B|-3---3---3-3---3-|-3---3-----3---3-|
G|-0---0---0-0---0-|-0---0-----0---0-|
D|-3---3---3-3---3-|-0---0-----0---0-|
A|-2---2---2-2---2-|-3---3-----3---3-|
E|-x---x---x-x---x-|-2---2-----2---2-|
                                   and it...

   C9                G
   1 & 2 & 3 & 4 &   1 & 2 & 3 & 4 &
E|-3---3---3-3---3-|-3---3-----3---3-|
B|-3---3---3-3---3-|-3---3-----3---3-|
G|-0---0---0-0---0-|-0---0-----0---0-|
D|-3---3---3-3---3-|-0---0-----0---0-|
A|-2---2---2-2---2-|-3---3-----3---3-|
E|-x---x---x-x---x-|-2---2-----2---2-|
   hurts to want ev'rything and nothing at the same time...

   C9                G
   1 & 2 & 3 & 4 &   1 & 2 & 3 & 4 &
E|-3---3---3-3---3-|-3---3-----3-3---|
B|-3---3---3-3---3-|-3---3-----3-3---|
G|-0---0---0-0---0-|-0---0-----0-0---|
D|-3---3---3-3---3-|-0---0-----0-0---|
A|-2---2---2-2---2-|-3---3-----3-3---|
E|-x---x---x-x---x-|-2---2-----2-2---|
     I want whats yours and I want whats mine...and I want...

   C9
   1 & 2 & 3 & 4 &
E|-3---------------|
B|-3---------------|
G|-0---------------|
D|-2---------------|
A|-3---------------|
E|-x---------------|
   you, but I'm not giving in this...



(Chorus)

   G      Dsus4/F#   Em7       Em7 C9
   1 & 2 & 3 & 4 &   1 & 2 & 3 & 4 &
E|-3-------3-------|-3---------3---3-|
B|-3-------3-------|-3---------3---3-|
G|-0-------2-------|-0---------0---0-|
D|-0-------0-------|-2---------2---2-|
A|-2-------0-------|-2---------2---3-|
E|-3-------2-------|-0---------0---0-|
 time..Goodbye to you..........goodbye to...

   G      Dsus4/F#   Em7       Em7 C9
   1 & 2 & 3 & 4 &   1 & 2 & 3 & 4 &
E|-3-------3-------|-3---------3---3-|
B|-3-------3-------|-3---------3---3-|
G|-0-------2-------|-0---------0---0-|
D|-0-------0-------|-2---------2---2-|
A|-2-------0-------|-2---------2---3-|
E|-3-------2-------|-0---------0---0-|
   ev'rything I though I knew...

   G      Dsus4/F#   Em7    
   1 & 2 & 3 & 4 &   1 & 2 &
E|-3-------3-------|-3-------|
B|-3-------3-------|-3-------|
G|-0-------2-------|-0-------|
D|-0-------0-------|-2-------|
A|-2-------0-------|-2-------|
E|-3-------2-------|-0-------|
     you were the one I loved...the...

   A7                C         
   1 & 2 & 3 & 4 &   1 & 2 & 3 & 4 &
E|-0-0-0-0-0-0-0-0-|-0-0-0-0-0-0-0-1-|
B|-2-2-2-2-2-2-2-2-|-1-1-1-1-1-1-1-1-|
G|-0-0-0-0-0-0-0-0-|-0-0-0-0-0-0-0-0-|
D|-2-2-2-2-2-2-2-2-|-2-2-2-2-2-2-2-2-|
A|-0-0-0-0-0-0-0-0-|-3-3-3-3-3-3-3-3-|
E|-0-0-0-0-0-0-0-0-|-0-0-0-0-0-0-0-0-|
   one thing that I tried to hold on too...oh, whoa

   G      Dsus4/F#   Em7       Em7 C9
   1 & 2 & 3 & 4 &   1 & 2 & 3 & 4 &
E|-3-------3-------|-3---------3---3-|
B|-3-------3-------|-3---------3---3-|
G|-0-------2-------|-0---------0---0-|
D|-0-------0-------|-2---------2---2-|
A|-2-------0-------|-2---------2---3-|
E|-3-------2-------|-0---------0---0-|
       Goodbye to you..........goodbye to...

   G      Dsus4/F#   Em7       Em7 C9
   1 & 2 & 3 & 4 &   1 & 2 & 3 & 4 &
E|-3-------3-------|-3---------3---3-|
B|-3-------3-------|-3---------3---3-|
G|-0-------2-------|-0---------0---0-|
D|-0-------0-------|-2---------2---2-|
A|-2-------0-------|-2---------2---3-|
E|-3-------2-------|-0---------0---0-|
   ev'rything I though I knew...

   G      Dsus4/F#   Em7    
   1 & 2 & 3 & 4 &   1 & 2 &
E|-3-------3-------|-3-------|
B|-3-------3-------|-3-------|
G|-0-------2-------|-0-------|
D|-0-------0-------|-2-------|
A|-2-------0-------|-2-------|
E|-3-------2-------|-0-------|
     you were the one I loved...the...

   A7                C         
   1 & 2 & 3 & 4 &   1 & 2 & 3 & 4 &
E|-0-0-0-0-0-0-0-0-|-0-0-0-0-0-0-0-1-|
B|-2-2-2-2-2-2-2-2-|-1-1-1-1-1-1-1-1-|
G|-0-0-0-0-0-0-0-0-|-0-0-0-0-0-0-0-0-|
D|-2-2-2-2-2-2-2-2-|-2-2-2-2-2-2-2-2-|
A|-0-0-0-0-0-0-0-0-|-3-3-3-3-3-3-3-3-|
E|-0-0-0-0-0-0-0-0-|-0-0-0-0-0-0-0-0-|
   one thing that I tried to hold on too...the

 A7                C         
   1 & 2 & 3 & 4 &   1 & 2 & 3 & 4 &
E|-0-0-0-0-0-0-0-0-|-0-0-0-0-0-0-0-1-|
B|-2-2-2-2-2-2-2-2-|-1-1-1-1-1-1-1-1-|
G|-0-0-0-0-0-0-0-0-|-0-0-0-0-0-0-0-0-|
D|-2-2-2-2-2-2-2-2-|-2-2-2-2-2-2-2-2-|
A|-0-0-0-0-0-0-0-0-|-3-3-3-3-3-3-3-3-|
E|-0-0-0-0-0-0-0-0-|-0-0-0-0-0-0-0-0-|
   one thing that I tried to hold on too...



(Outro)

   C9                G
   1 & 2 & 3 & 4 &   1 & 2 & 3 & 4 &
E|-3---3---3-3---3-|-3---3-----3---3-|
B|-3---3---3-3---3-|-3---3-----3---3-|
G|-0---0---0-0---0-|-0---0-----0---0-|
D|-3---3---3-3---3-|-0---0-----0---0-| 
A|-2---2---2-2---2-|-3---3-----3---3-|
E|-x---x---x-x---x-|-2---2-----2---2-|
                               ooh, whoa

   C9                G
   1 & 2 & 3 & 4 &   1 & 2 & 3 & 4 &
E|-3---3---3-3---3-|-3---3-----3---3-|
B|-3---3---3-3---3-|-3---3-----3---3-|
G|-0---0---0-0---0-|-0---0-----0---0-|
D|-3---3---3-3---3-|-0---0-----0---0-| 
A|-2---2---2-2---2-|-3---3-----3---3-|
E|-x---x---x-x---x-|-2---2-----2---2-|
   whoa.....

   C9                G
   1 & 2 & 3 & 4 &   1 & 2 & 3 & 4 &
E|-3---3---3-3---3-|-3---3-----3---3-|
B|-3---3---3-3---3-|-3---3-----3---3-|
G|-0---0---0-0---0-|-0---0-----0---0-|
D|-3---3---3-3---3-|-0---0-----0---0-| 
A|-2---2---2-2---2-|-3---3-----3---3-|
E|-x---x---x-x---x-|-2---2-----2---2-|
     and when the stars fall I will lie awake...


   1 & 2 & 3 & 4 &   1 & 2 & 3 & 4 &
E|-3---------------|-3---------------|
B|-3---------------|-3---------------|
G|-0---------------|-0---------------|
D|-2---------------|-0---------------|
A|-3---------------|-2---------------|
E|-x---------------|-3---------------|
     you're my shooting star...
Comments