Michelle Branch - Everywhere Acoustic Chords & Tabs

 

Everywhere Acoustic Chords & Tabs

Michelle Branch Chords & Tabs

Version: 1 Type: Tab 0 ratings
1 star 2 stars 3 stars 4 stars 5 stars
comments

Everywhere Acoustic Tab

   
Hey guys! this is the acoustic version on the hit song Everywhere but if you havent seen
it go on www.launch.com and then click on video and type on her name and then you can see
it! so here it goes!

Here what you do is pluck the 0 and then strum Am and so on...

Intro
                  C                 G
    , . , . , . , .   , . , . , . , .   , . , . , . , .   , . , . , . , .
 ||-----------------||---------------   ---------------   ---------------|
 ||-------Am--------||---------C-----   ----------G----   ----------G----|
 ||-----------------||---------------   ---------------   ---------------|
 ||-----------------||---------------   ---------------   ---------------|
 ||---0-------------||---3-----------   ---------------   ---------------|
 ||-----------------||---------------   ---3-----------   ---3-----------|  X2

Then the lyrics comes in with the second part..


                 Am                 C                 G
    , . , . , . , .   , . , . , . , .   , . , . , . , .   , . , . , . , .
 ||-----------------||---------------   ---------------   ---------------|
 ||-------Am--------||---------C-----   ----------G----   ----------G----|
 ||-----------------||---------------   ---------------   ---------------|
 ||-----------------||---------------   ---------------   ---------------|
 ||---0-------------||---3-----------   ---------------   ---------------|
 ||-----------------||---------------   ---3-----------   ---3-----------|  X2

Turn it inside out so i can see
The part of you thats drifting over me


Then this is where is changes...

 D/F#                                    G
   , . , . , . , .   , . , . , . , .   , . , . , . , .   , . , . , . , .
 ||-----------------||---------------   ---------------   ---------------|
 ||------- D/F#-----||-------- D/F#--   ----------G----   ----------G----|
 ||-----------------||---------------   ---------------   ---------------|
 ||-----------------||---------------   ---------------   ---------------|
 ||-----------------||---------------   ---------------   ---------------|
 ||----2------------||----2----------   ---3-----------   ---3-----------|


Then the lyrics go...

And when i wake youurr never there
And when i sleep youurr everywhere


   , . , . , . , .   , . , . , . , .   , . , . , . , .   , . , . , . , .
 ||-----------------||---------------   ---------------   ---------------|
 ||------- Am-------||-------- D/F#--   ----------G----   ----------G----|
 ||-----------------||---------------   ---------------   ---------------|
 ||-----------------||---------------   ---------------   ---------------|
 ||---0-------------||---------------   ---------------   ---------------|
 ||-----------------||----2----------   ---3-----------   ---3-----------|

then guitar stops.............Your everywhere

Then it you strum out hard on this bit..


Am  C  G  G x2

[ Tab from: http://www.guitartabs.cc/tabs/m/michelle_branch/everywhere_acoustic_tab.html ]
Am           C               G     G
Just tell me how I got this far
Am           C            G             G
Just tell me why you're here and who you are
D/F#                        G
Cause every time I look you're never there
   Am           D/F#             G
And every time I sleep you're always there


Chorus..

             Fmaj7   C        G
Cause you're every - where to me
                    Fmaj7     C     G
And when I close my eyes it's you I see
                    Fmaj7     C        G
You're everything I know that makes me believe
        Fmaj7    C     G
I'm not alone
               Am   C   D
I'm not alone

Verse

Am              C           G         G
I recognize the way you make me feel
Am              C          G           G
It's hard to think that you might not be real
                     Dsus            G
I sense that now the water's getting deep
                  E              C   B/C  Dsus
I try to wash the pain away from me


Repeat chorus

then there is no solo and goes straight to the end part of the song....


   , . , . , . , .   , . , . , . , .   , . , . , . , .   , . , . , . , .
 ||-----------------||---------------   ---------------   ---------------|
 ||------- Fmaj7----||----------C----   ----------G----   ----------G----|
 ||-----------------||---------------   ---------------   ---------------|
 ||-----3-----------||---------------   ---------------   ---------------|
 ||-----------------||-----3---------   ---------------   ---------------|
 ||-----------------||---------------   ---3-----------   ---3-----------| x4

Fmaj7            C         G
When I touch you hand it's then I understand
    Fmaj7             C        G
The beauty that's within, it's now that we begin
    Fmaj7           C          G
You always light my way, there never comes a day
   Fmaj7          C     G
No matter where I go, I always feel you so


Repeat chorus agian

then to end the song....


  , . , . , . , .   , . , . , . , .   , . , . , . , .   , . , . , . , .
 ||-----------------||---------------   ---------------   ---------------|
 ||------- Fmaj7----||----------C----   ----------G----   ----------G----|
 ||-----------------||---------------   ---------------   ---------------|
 ||-----3-----------||---------------   ---------------   ---------------|
 ||-----------------||-----3---------   ---------------   ---------------|
 ||-----------------||---------------   ---3-----------   ---3-----------|

          Fmaj7   C     G
You're in every - one I see
           Fmaj7   C             G
So tell me            do you see me.


God that took ages!!! so hope you understand ok i know its a bit tricky to work out my
version but i'm sure you will understand anyway have fun cya! xxx
Comments