Michelle Branch - Everywhere Acoustic Chords & Tabs

 

Everywhere Acoustic Chords & Tabs

Michelle Branch Chords & Tabs

Version: 1 Type: Chords 0 ratings
1 star 2 stars 3 stars 4 stars 5 stars
comments

Everywhere Acoustic Chords

   
Everywhere (Acoustic)
Capo on 1
Intro X's 2 continue playing until "and when I wake you're never there" 


Am C G 
-------0--------0-----------0--------0----------3-------3--- 
----------1--------------------1-------------------3------- 
-------------2--------------------0---------------------- 
----2---------------------2------------------0-------0----- 
-0--------------------3---------------------------------- 
------------------------------------------3--------------- 
Turn it inside out so I can see 
The part of you that's drifting over me 
And when I wake 


F C G 
-------1--------1----------0-------0-------- 
----------1-------------------1--------------- 
----2--------2-------------------0---------- 
-3----------------------2----------------- 
---------------------3-------------------- 
--------------------------------------- 

---------3-------3--------3-------3 
------------3----------------3----- 
----------------------------------- 
------0--------0-------0--------0-- 
-------------------------------- 
-3----------------3------------ 
you're never there 
But when I sleep you're everywhere 
You're everywhere 


(Am)Just tell me (C)how I got (G)this far 

(Am)Just tell me why (C)you're here and (G)who you are 

'Cause every (F)time I look 

you're (C)never (G)there 

And every (F)time I sleep 

you're (C)always(G) there 


'Cause you(F)'re (C)every(G)where to me 
[ Tab from: http://www.guitartabs.cc/tabs/m/michelle_branch/everywhere_acoustic_crd.html ]
And when I (F)close my (C)eyes (G)it's you I see 

You're every(F)thing I know 

that (C)makes (G)me believe 

I'm not (F,C,G)alone 
I'm not alone 


Am, C, G 


(Am)I recognize the (C)way you (G)make me feel 

(Am)It's hard to think that 

(C)you might (G)not be real 

I sense it now,(F) the (C)water's (G)getting deep 

I try to wash (E)the pain (C)away from me 

Away (G)from me 



'Cause you(F)'re (C)every(G)where to me 

And when I clo(F)se my (C)eyes (G)it's you I see 

You're every(F)thing I know 

that (C)makes (G)me believe 

I'm not (F,C,G)alone 

Riff #2 
And when I touch your hand 
It's then I understand 
The beauty that's within 
It's now that we begin 
You always light my way 
I hope there never comes a day 
No matter where I go 
I always feel you so 



'Cause you(F)'re (C)every(G)where to me 

And when I clo(F)se (C)my (G)eyes it's you I see 

You're every(F)thing I know 

that (C)makes (G)me believe 

I'm not (F,C,G)alone 


'Cause you(F)'re (C)every(G)where to me 

And when I cat(F)ch my (C)breath (G)it's you I breathe 

You're every(F)thing I know 

that (C)makes (G)me believe 

I'm not (F,C,G)alone 

Riff #2 

You're in everyone I see 
So tell me 

Do you see(G) me? 


Comments