Michelle Branch - Breathe Chords & Tabs

 

Breathe Chords & Tabs

Michelle Branch Chords & Tabs

Version: 3 Type: Tab 0 ratings
1 star 2 stars 3 stars 4 stars 5 stars
comments

Breathe Tab

      -----------------------------------------------------------------
      Breathe - Michelle Branch
      -----------------------------------------------------------------
      Tabbed by: Kevin Do & Jen Lum
      Email: 

      Tuning: Standard, with capo on first fret, since when does Michelle Branch do drop-D?

      e|--------------------------------|
      B|--------------------------------|
      G|--4-42-4-4-4424---4-44-4-4-4444-|
      D|--2-22-2-2-2222---2-22-2-2-2222-|
      A|000-00-0-0-0000---x-xx-x-x-xxxx-|
      E|----------------444-44-4-4-4444-|

        (x2)

      e|---------------------------------------------------------------------|
      B|---------------------------------------------------------------------|
      G|--4-42-4-4-4424-----------------------4-44-4-4-4444------------------|
      D|--2-22-2-2-2222-----------------------2-22-2-2-2222------------------|
      A|000-00-0-0-0000-----------------------x-xx-x-x-xxxx------------------|
      E|------------------------------------444-44-4-4-4444------------------|

        I've been driving for an hour, just talking to the rain

      e|---------------------------------------------------------------------|
      B|---------------------------------------------------------------------|
      G|----------4-44-4-4-4444-------4---------------2------------------4---|
      D|----------2-22-2-2-2222-------2---------------2------------------2---|
      A|--------444-44-4-4-4444-------2---------------0------------------2---|
      E|---------------------------------------------------------------------|

        You say I've been driving you crazy, and it's keeping you away

      e|---------------------------------------------------------------------|
      B|---------------------------------------------------------------------|
      G|--------4--------------------------------4---------------------------|
      D|--------2--------------------------------2---------------------------|
      A|--------0--------------------------------x---------------------------|
      E|-----------------------------------------4---------------------------|

        So just give me one good reason, tell me why I should stay

      e|--------------------------------------------------------------------------------|
      B|--------------------------------------------------------------------------------|
      G|---------------------4-------------4-----------------------2------------------4-|
      D|---------------------2-------------2-----------------------2------------------2-|
      A|---------------------4-------------2-----------------------0------------------2-|
      E|--------------------------------------------------------------------------------|

        'Cause I don't wanna waste another moment saying things we never meant to say

      e|----0-0---0---------------------------0-0---0-------------------------------|
      B|----4-0---0---------------------------4-0---0-------------------------------|
      G|----4-1---2---------------------------4-1---2-------------------------------|
      D|----4-2---2---------------------------4-2---2-------------------------------|
      A|----2-2---0---------------------------2-2---0-------------------------------|
      E|----------------------------------------------------------------------------|

        And I.... take you just a little bit, I.... hold my breath and count to ten
[ Tab from: http://www.guitartabs.cc/tabs/m/michelle_branch/breathe_tab_ver_3.html ]
      e|----0-0---0------------------0-0---0-------------------------------|
      B|----4-0---0------------------4-0---0-------------------------------|
      G|----4-1---2------------------4-1---2-------------------------------|
      D|----4-2---2------------------4-2---2-------------------------------|
      A|----2-2---0------------------2-2---0-------------------------------|
      E|-------------------------------------------------------------------|

            I've  been waiting for a chance to let you in

      e|-0-0-0--0-0-0--0-0-0--0-0-0-|-0-0-0--0-0-0--0-0-0--0-0-0-|
      B|-0-0-0--0-0-0--0-0-0--0-0-0-|-0-0-0--0-0-0--0-0-0--0-0-0-|
      G|-2-2-2--4-4-4--6-6-6--2-2-2-|-2-2-2--1-1-1--2-2-2--4-4-4-| x 2
      D|-2-2-2--4-4-4--6-6-6--2-2-2-|-2-2-2--2-2-2--2-2-2--4-4-4-|
      A|-0-0-0--2-2-2--4-4-4--0-2-2-|-0-0-0--2-2-2--0-0-0--2-2-2-|
      E|----------------------------|----------------------------|

         If I just breathe..

      e|------------------------------------|
      B|-4-4-4-4-2-2-2-0h2-4-4-4-4-2-2-2-2--|
      G|-4-4-4-4-4-4-4-----4-4-4-4-4-4-4-4--|
      D|---------4-4-4-------------4-4-4-4--|
      A|------------------------------------|
      E|------------------------------------|


      e|---4---2---0---2-2-2--00--0----4---2---0---2--2-2-0--4---2--|
      B|------------------------4---2--------0---0---0-0-0--0--0----|
      G|-4---4---4---4--4-4-4--------4---4--------------------------|
      D|------------------------------------------------------------|
      A|------------------------------------------------------------|
      E|------------------------------------------------------------|


      e|----0-0---0---------------------------0-0---0------|
      B|----4-0---0---------------------------4-0---0------|
      G|----4-1---2---------------------------4-1---2------|
      D|----4-2---2---------------------------4-2---2------| x 2
      A|----2-2---0---------------------------2-2---0------|
      E|---------------------------------------------------|


      e|-0-0-0--0-0-0--0-0-0--0-0-0-|-0-0-0--0-0-0--0-0-0--0-0-0-|
      B|-0-0-0--0-0-0--0-0-0--0-0-0-|-0-0-0--0-0-0--0-0-0--0-0-0-|
      G|-2-2-2--4-4-4--6-6-6--2-2-2-|-2-2-2--1-1-1--2-2-2--4-4-4-|
      D|-2-2-2--4-4-4--6-6-6--2-2-2-|-2-2-2--2-2-2--2-2-2--4-4-4-| x 2
      A|-0-0-0--2-2-2--4-4-4--0-2-2-|-0-0-0--2-2-2--0-0-0--2-2-2-|
      E|----------------------------|----------------------------|


      e|---0---0---0---0---0---0---0---0--|
      B|--4-4-4-4-4-4-4-4-4-4-4-4-4-4-4-4-|
      G|----------------------------------|
      D|----------------------------------| x 3
      A|-0-----------2---0-----------4----|
      E|-----0---4-----------0---4--------|


      e|-0-0-0--0-0-0--0-0-0--0-0-0-|-0-0-0--0-0-0--0-0-0--0-0-0-|
      B|-0-0-0--0-0-0--0-0-0--0-0-0-|-0-0-0--0-0-0--0-0-0--0-0-0-|
      G|-2-2-2--4-4-4--6-6-6--2-2-2-|-2-2-2--1-1-1--2-2-2--4-4-4-| x 4
      D|-2-2-2--4-4-4--6-6-6--2-2-2-|-2-2-2--2-2-2--2-2-2--4-4-4-|
      A|-0-0-0--2-2-2--4-4-4--0-2-2-|-0-0-0--2-2-2--0-0-0--2-2-2-|
      E|----------------------------|----------------------------|

      e|-0-0-0--0-0-0--0-0-0--0-0-0-|-0-0-0--0-0-0--0---------|
      B|-0-0-0--0-0-0--0-0-0--0-0-0-|-0-0-0--0-0-0--0---------|
      G|-2-2-2--4-4-4--6-6-6--2-2-2-|-2-2-2--1-1-1--2-let ring| 
      D|-2-2-2--4-4-4--6-6-6--2-2-2-|-2-2-2--2-2-2--2---------|
      A|-0-0-0--2-2-2--4-4-4--0-2-2-|-0-0-0--2-2-2--0---------|
      E|----------------------------|-------------------------|
Comments