Michelle Branch - Breathe Chords & Tabs

 

Breathe Chords & Tabs

Michelle Branch Chords & Tabs

Version: 2 Type: Tab 0 ratings
1 star 2 stars 3 stars 4 stars 5 stars
comments

Breathe Tab

Michelle Branch - Breathe
Album - H0-tel Paper

Tabber: ISSA ME JAKE CHEN! 

Corrections and Comments to darc_blade@hotmail.com

New single by Michelle Branch, surprised me. She uses Drop D. 
Or maybe not, it's just alot easier to play with Drop D.
Surprisingly, this is the most challenging song by Michelle that
I've had to figure out how to tab. Figure out strum patterns yourself, 
it's a pain in the ass just tabbing. 

Remember like all Michelle Branch songs:

!!!!!!!!!!!!!!!!---CAPO ON FIRST FRET---!!!!!!!!!!!!!!!!  


(It's bloody accurate with capo, so no damn slander against this tab
And please remember the tab is relative to the capo, meaning everything is moved 
down a fret from the normal when you play this) 

Intro - Just like the verse....
              
E|--------------------------------------|
B|--------------------------------------|
G|--------------------------------------|
D|-7-7-9--7-9-7-9-9----7-7-9--7-9-7-9-9-|
A|-7-7-7--7-7-7-7-7----7-7-7--7-7-7-7-7-|
D|-7-7-7--7-7-7-7-7----6-6-6--6-6-6-6-6-|

Verse - Play twice for first verse, once for second verse.
        "So I've been driving for an hour..."

E|----------------------------------------0-0-0--0-0-0--0-0-0-|
B|----------------------------------------0-0-0--0-0-0--0-0-0-|
G|----------------------------------------6-6-6--4-4-4--2-2-2-|
D|-7-7-9--7-9-7-9-11---7-7-9--7-9-7-9-11--6-6-6--4-4-4--2-2-2-|
A|-7-7-7--7-7-7-7-7----7-7-7--7-7-7-7-7---4-4-4--2-2-2--0-0-0-|
D|-7-7-7--7-7-7-7-7----6-6-6--6-6-6-6-6-----------------------|

Pre Chorus - the part played 4 times, which starts off
	     "Iiiii.... take you just a little bit"

E|-0-0-0---0-0-0-0-|
B|-0-0-0---0-0-0-0-|
G|-4-4-1---2-2-2-2-|
D|-4-4-2---2-2-2-2-|
A|-2-2-2---0-0-0-0-|
D|-----2-----------|
[ Tab from: http://www.guitartabs.cc/tabs/m/michelle_branch/breathe_tab_ver_2.html ]
Chorus - Played twice for both choruses.... 5 times at ending

E|-0-0-0--0-0-0--0-0-0--0-0-0-|-0-0-0--0-0-0--0-0-0--0-0-0-|
B|-0-0-0--0-0-0--0-0-0--0-0-0-|-0-0-0--0-0-0--0-0-0--0-0-0-|
G|-2-2-2--4-4-4--6-6-6--2-2-2-|-2-2-2--1-1-1--2-2-2--4-4-4-|
D|-2-2-2--4-4-4--6-6-6--2-2-2-|-2-2-2--2-2-2--2-2-2--4-4-4-|
A|-0-0-0--2-2-2--4-4-4--0-2-2-|-0-0-0--2-2-2--0-0-0--2-2-2-|
D|----------------------------|--------2-2-2---------------|

Post Chorus - Michelle's part (should be at least...) right before she
              begins the second verse

E|-0-0-0-0--0-0-0-0-|
B|-0-0-0-0--0-0-0-0-|
G|-2-2-2-2--7-7-7-7-|
D|-2-2-2-2--7-7-7-7-|
A|-0-0-0-0--5-5-5-5-|
D|------------------|

Second Guitar Part - During the Post Chorus then Second Verse...

E|--------------------------------|
B|--------------------------------|
G|-9-9-9--6-6-6--4-6-8--8-8-8-8-9-|
D|-x-x-x--x-x-x--x-x-x--x-x-x-x-x-|
A|-7-7-7--4-4-4--2-4-6--6-6-6-6-7-|
D|--------------------------------|

Second Guitar Verse Part

E|-4--2--0--2----2---0---------|-4--2--0--2----0--2--4--2-|
B|---------------------4-5-2-0-|--------------------------|
G|---4--4--4--4----4-----------|---4--4--4--4---4---4--4--|
D|-----------------------------|--------------------------|
A|-----------------------------|--------------------------|
D|-----------------------------|--------------------------|



Bridge - It's either Michelle's Part or the second guitar, video
	 suggest second guitar, but if it is.... boy, is Michelle lazy.
	 She sings "and I whisper in the dark..."

E|--0---0---0---0--|--0---0---0---0--|
B|---4---4---4---4-|---4---4---4---4-|
G|-----------------|-----------------|
D|-----------------|-----------------|
A|-0-------0---2---|-0-------2---4---|
D|-----2-----------|-----2-----------|
Comments