Michelle Branch - All You Wanted Chords & Tabs

 

All You Wanted Chords & Tabs

Michelle Branch Chords & Tabs

Version: 6 Type: Tab 0 ratings
1 star 2 stars 3 stars 4 stars 5 stars
comments

All You Wanted Tab

   
Ok id like to say that most of the tabs for this song dont sound right to me, so here is 
my interpretation. Email me at s21s88@aol.com .

***********************************************************

Standard tuning, and a capo on the first fret.

Intro
 --------------- --------2------ --------------- 
 -----------3--- -----------3--- --------3------ 
 -----0--0------ -----0--------- -----0-----0--- 
 --2------------ --0------------ --------------- 
 --------------- --------------- --3------------ 
 --------------- --------------- --------------- 
 
 --------3------ --------2------ --------------- 
 -----------3--- -----------3--- --------3------ 
 -----0--------- -----0--------- -----0-----0---
 --2------------ --0------------ --------------- 
 --------------- --------------- --3------------ 
 --------------- --------------- --------------- 

 --------0------ --------------- ---------------
 ------------3-- --------------- ---------------
 -----0--------- --------------- ---------------
 --------------- --------------- ---------------
 --------------- --------------- ---------------
 --3------------ --------------- ---------------

Verse 1

 --------------- --------2------ --------------- 
 -----------3--- -----------3--- --------3------ 
 -----0--0------ -----0--------- -----0-----0--- 
 --2------------ --0------------ --------------- 
 --------------- --------------- --3------------ 
 --------------- --------------- --------------- 
 I wanted to be like
 --------3------ --------2------ --------------- 
 -----------3--- -----------3--- --------3------ 
 -----0--------- -----0--------- -----0-----0---
 --2------------ --0------------ --------------- 
 --------------- --------------- --3------------ 
 --------------- --------------- --------------- 
 you.              I wanted every
 --------0------ ---------3----- ---------2-----
 ------------3-- ------------3-- ------------3--
 -----0--------- ------0-------- -------0-------
 --------------- ---2----------- ---0-----------
 --------------- --------------- ---------------
 --3------------ --------------- ---------------
   thing.           Sooo I tried

 --------------- ---------0----- 
 --------3------ -----------3--- 
 -----0----0---- ------0-------- 
 --------------- --------------- 
 --3------------ --------------- 
 --------------- ---3----------- 
 to     be      like        you

 --------3------ ---------2----- 
 -----------3--- ------------3-- 
 -----0--------- ------0-------- 
 --2------------ ----0---------- 
 --------------- --------------- 
 --------------- --------------- 
aaannnd I got swept

 ---------------  --------------- 
 --------3------  -------3------- 
 -----0----0----  ----0----0-----
 ---------------  --------------- 
 --3------------  --3------------ 
 ---------------  ---------------
a waaaaaa

-----------------3-2---------- 
-------3------3--3-3-3-------- 
----------0/2--------0-------- 
------------------------------ 
------------------------------ 
--2---------------------------
aaaay

 Ok now there are 4 little measures to each line of the song if you havent noticed. 
the second verse is EXACTLY the same as the first except the 4th measures so I will 
just post the 4th measure to each line and just refer to verse 1 for the first 3 measures.

Verse 2:
 4th measure
"1 line    "2nd     "3rd            -------5--3----   
                                    ------------3--   
                                    ---------------  
                                    ---------------   
                                    ---------------   
                                    --3------------  
[ Tab from: http://www.guitartabs.cc/tabs/m/michelle_branch/all_you_wanted_tab_ver_6.html ]
I didn't know it was so cold and
"1 line    "2nd     "3rd            -------3-------   
                                    ----------3----   
                                    ---0--------0--  
                                    ---------------   
                                    ---------------   
                                    --3------------  

you needed someone to show you the way.

"1 line    "2nd     "3rd            -------5--3----   
                                    ------------3--   
                                    ---------------  
                                    ---------------   
                                    ---------------   
                                    --3------------ 
So I took your hand and, we figured out that

| --------3------  --------2------  --------------- 
| -----------3---  -----------3---  --------3------ 
| -----0---------  -----2---------  -----0-----0--- 
| --2------------  --0------------  --------------- 
| ---------------  ---------------  --3------------ 
| ---------------  ---------------  --------------- 

when the tide comes I'd take you awaaaaa------

 this part goes something like this

------3--------3----------------------------| 
------3--------3----/8*---7-5-3---1--0-0-0--| 
---------------------------------------2----| 
--------------------------------------------| 
--------------------------------------------| 
--33----3-3------3--------------------------| 

-------------------aaaay."

* Slide from somewhere near 3rd

Chorus:
I think the chorus is 

Em C G D D/G but I play it Em C G Dsus2 like this;

Em C G Dsus2
If you want to I can save you

Em C G Dsus2
I can take you away from here.

Em C G Dsus2
So lonely inside, so busy out there

Em C G Dsus2
And all you wanted was somebody who cares.

Play the into here kind of an intro to the backround solo;

Intro then this:

-------5-----5-----5-5-5-7-8-7-5---
-----8-----8-----8----------------- 
-----------------------------------
-----------------------------------
-----------------------------------
-----------------------------------

-----------------------0--------------3--------------2------
--------3-----------------3--------------3--------------3---
----0-----0--------0--------------0--------------0----------
-------------------------------2--------------0-------------
-3----------------------------------------------------------
----------------3-------------------------------------------

Play that a couple of times and then after the fourth time playing it play this:

--------0-------------------------
-----------3/8/7/5/3/1/0-0---0----
-----0---------------------2------
----------------------------------
----------------------------------
--2-------------------------------

instead of the last part of the last line.

Chorus

Bridge:

C D Em
All you wanted was somebody who cares

D C D
If you need me you know ill be there

Solo

7777-8888-7777-5555-7777-8888-7777-5-7-5-3------
------------------------------------------------
------------------------------------------------
------------------------------------------------
------------------------------------------------
------------------------------------------------
 
Chorus (While solo is played again on a different guitar)

Then the second line of the intro twice.

Then:

While This is played guitar 2 strums a Cmaj chord softly.

                                Last chord Strummed.
--------3--------------2-------|---0---------- 
-----------3-------------3-----|---1---------- 
-----0--------------2----------|---0---------- 
--2--------------0-------------|---2---------- 
-------------------------------|---3---------- 
-------------------------------|-------------- 

where you go when your gone

Sorry, I know that was very confusing but if you play it and listen to the song you 
will get it in order. EMail me with any questions at s21s88@aol.com or catch me on 
Aol Instant Messanger at ThatSeanKid.
Comments