Michelle Branch - All You Wanted Chords & Tabs

 

All You Wanted Chords & Tabs

Michelle Branch Chords & Tabs

Version: 4 Type: Tab 0 ratings
1 star 2 stars 3 stars 4 stars 5 stars
comments

All You Wanted Tab

   
Michelle Branch - All You Wanted
Tabbed by Jeff B
bogiebbs@yahoo.com

*****************
* Capo 1st fret *
*****************

all fret posistions are relative to the capo.
In other words, the capoed fret = 0.

Chords used in the song

   Em  c   G   D   Emadd13b   Am11   G2   Dadd11
e--0---0---3---2------0---------0-----0------0----
b--0---1---3---3------1---------1-----1------1----
g--0---0---0---2------0---------0-----0------0----
d--2---2---0---0------0---------0-----0------0----
a--2---3---x----------2---------0-----0------0----
e--0-------3--------------------------3------2----


Intro:
e-----3-------2---------------0----
b-------3-------3-----3---------3--
g---0-------0-------0---0---0------
d-2-------0------------------------
a-----------------3----------------
e-------------------------3--------

( :30)
e-----------0----------
b-----3-------3--------
g---2---2-------2------
d-0--------------------
a----------------------
e----------------------

 lead into chorus, slight bends ( :52)
e----------------------
b-8b--7b--5--3--1--0---
g----------------------
d----------------------
a----------------------
e----------------------

chorus:

Em                  c
If you want to, I can save you
G                     D
I can take you away from here
Em                    c
So lonely inside, so busy out there
G                                       D
And all you wanted was somebody who cares


Post chorus solo (1:17)

e-3-5--3-5--3-5-5--7-8-7-5-3--
b-----------------------------
g-----------------------------
d-----------------------------
a-----------------------------
e-----------------------------

[ Tab from: http://www.guitartabs.cc/tabs/m/michelle_branch/all_you_wanted_tab_ver_4.html ]
2nd lead into chorus (1:42)
e-------------------------
b-8b-7\5-5\3-3\1-0--------
g-------------------------
d-------------------------
a-------------------------
e-------------------------


Bridge (2:05)

Guitar 1

c          D                       c             D
   All you wanted was somebody who cares, if you need me
                 c     Emadd13b   Am11  G2   Dadd11   D
You know I'll be there                                   yeah


Guitar 2 bridge lead

e-3-3-3-3-3-3-5-5-5-5-5-5-7-7-7-7-7-7-10-10-10-10-10-10-
b-------------------------------------------------------
g-------------------------------------------------------
d-------------------------------------------------------
a-------------------------------------------------------
e-------------------------------------------------------

e-8-8-8-8-7-7-7-7-5-5-5-5-3-3-3-3-2-2-2-2-2-2/5-5-5-5-5-5-
b---------------------------------------------------------
g---------------------------------------------------------
d---------------------------------------------------------
a---------------------------------------------------------
e---------------------------------------------------------

 lead (2:45) 2 times

e-7-7-7-7-8-8-8-8-7-7-7-7-5-5-5-5--
b----------------------------------
g----------------------------------
d----------------------------------
a----------------------------------
e----------------------------------


outro:
e-----3-------2---------------0--------3--------2----
b-------3-------3-----3---------3--------3--------3--
g---0-------0-------0---0---0--------0--------0------
d-2-------0------------------------2--------0--------
a-----------------3----------------------------------
e-------------------------3--------------------------

e-------------0-------3-------2---0---
b-----3---------3-------3-------3-1---
g---0---0---0-------0-------0-----0---
d-----------------2-------0-------2---
a-3-------------------------------3---
e---------3---------------------------

slight tremelo effect on last chord
Comments