Michale Graves - Tell Me Chords & Tabs

 

Tell Me Chords & Tabs

Michale Graves Chords & Tabs

Version: 1 Type: Tab

Tell Me Tab

-----------------------------Tell Me- Michale Graves
Tabbed by: Shoestring
Email: mrcrabby4@hotmail.com

Tuning: standard

   Intro
e|--------------------------------------------------------------------------------------|
B|--------------------------------------------------------------------------------------|
G|-8----5-------------------------------------------------------------------------------|
D|-8x15-5--6-----8--------x2------------------------------------------------------------|
A|-6----3--6-x8--8-x8-------------------------------------------------------------------|
E|---------4-----6----------------------------------------------------------------------|
  Verse
e|---------------------------------|
B|---------------------------------|
G|-------8-------------------------|
D|-6-----8-x16-6-----8------8-7-6--|
A|-6-x16-6-----6-x16-8-x16--8-7-6--|
E|-4-----------4-----6------6-5-4--|
[ Tab from: http://www.guitartabs.cc/tabs/m/michale_graves/tell_me_tab.html ]
e|--------------------------------|
B|--------------------------------|
G|-------8---------------------8--|
D|-6-----8-x16-8-----6----8----8--|
A|-6-x16-6-----8-x16-6-x8-8-x8-6--|
E|-4-----------6-----4----6-------|
  Chorus
e|------------------------------------------------------------------------------------|
B|------------------------------------------------------------------------------------|
G|-8-----5----------------------------------------------------------------------------|
D|-8-x16-5--6-----8-------------------------------------------------------------------|
A|-6-----3--6x8---8-x8----x2----------------------------------------------------------|
E|----------4-----6-------------------------------------------------------------------|
  Outro
e|------------------------------|
B|------------------------------|
G|--88-55---------(8)-----------|
D|--88-55-66-88---(8)-end-note--|
A|--66-33-66-88---(6)-----------|
E|--------44-66-----------------|

  Order: Intro  x2
         Verse  x1
         Chorus x2
         Verse  x1
         Chorus x6
         Outro  x4