Michale Graves - Storybook And Rhyme Chords & Tabs

 

Storybook And Rhyme Chords & Tabs

Michale Graves Chords & Tabs

Version: 1 Type: Tab 0 ratings
1 star 2 stars 3 stars 4 stars 5 stars
comments

Storybook And Rhyme Tab

Band:Michale Graves
Song:Storybook And Rhyme
Album:Punk Rock Is Dead
Tab:Luis Alvarez




|------------------------------------------------------------------------|
|------------------------------------------------------------------------|
|---3-3-3-3-3-3---*------------------------------------------------------|
|---3-3-3-3-3-3---5--5-5-5-5-5-5-5---------------------------------------|
|---1-1-1-1-1-1---5--5-5-5-5-5-5-5---------------------------------------|
|-----------------3--3-3-3-3-3-3-3---------------------------------------|
 Pm . . . . . .      . . . . . . .

  Drums kick in
|------------------------------------------------------------------------|
|------------------------------------------------------------------------|
|--3--3-3-3-3-3----*-----------------------------------------------------|
|--3--3-3-3-3-3----6---6-6-6-6-6-----------------------------------------|
|--1--1-1-1-1-1----6---6-6-6-6-6-----------------------------------------|
|------------------4---4-4-4-4-4-----------------------------------------|
 Pm.  . . . . .        . . . . . 

|------------------------------------------------------------------------|
|------------------------------------------------------------------------|
|---3-3-3-3-3-3---*------------------------------------------------------|
|---3-3-3-3-3-3---5--5-5-5-5-5-5-5---------------------------------------|
|---1-1-1-1-1-1---5--5-5-5-5-5-5-5---------------------------------------|
|-----------------3--3-3-3-3-3-3-3/9\1-----------------------------------|
 Pm . . . . . .


|------------------------------------------------------------------------|
|------------------------------------------------------------------------|
|----------------3-3-3-3-3-----------------------------------------------|
|--3--3-3-3-3-3--3-3-3-3-3-----------------------------------------------|
|--3--3-3-3-3-3--1-1-1-1-1-----------------------------------------------|
|--1--1-1-1-1-1----------------------------------------------------------|
 Pm.  . . . . .  

|------------------------------------------------------------------------|
|------------------------------------------------------------------------|
|----------------3-3-3-3-3-----------------------------------------------|
|--3--3-3-3-3-3--3-3-3-3-3-----------------------------------------------|
|--3--3-3-3-3-3--1-1-1-1-1-----------------------------------------------|
|--1--1-1-1-1-1----------------------------------------------------------|
 Pm.  . . . . .  
[ Tab from: http://www.guitartabs.cc/tabs/m/michale_graves/storybook_and_rhyme_tab.html ]
|------------------------------------------------------------------------|
|------------------------------------------------------------------------|
|---3-3-3-3-3-3---*------------------------------------------------------|
|---3-3-3-3-3-3---5--5-5-5-5-5-5-5---------------------------------------|
|---1-1-1-1-1-1---5--5-5-5-5-5-5-5---------------------------------------|
|-----------------3--3-3-3-3-3-3-3---------------------------------------|
 Pm . . . . . .      . . . . . . . 

 
|------------------------------------------------------------------------|
|------------------------------------------------------------------------|
|---3-3-3-3-3-3----*-----------------------------------------------------|
|---3-3-3-3-3-3----5--5-5-5-5-5-5-5--------------------------------------|
|---1-1-1-1-1-1----5--5-5-5-5-5-5-5--------------------------------------|
|------------------3--3-3-3-3-3-3-3--------------------------------------|
 Pm . . . . . .       . . . . . . .


|------------------------------------------------------------------------|
|------------------------------------------------------------------------|
|----------------3-3-3-3-3-----------------------------------------------|
|--3--3-3-3-3-3--3-3-3-3-3-----------------------------------------------|
|--3--3-3-3-3-3--1-1-1-1-1-----------------------------------------------|
|--1--1-1-1-1-1----------------------------------------------------------|
 Pm.  . . . . . 

|------------------------------------------------------------------------|
|------------------------------------------------------------------------|
|----------------3-3-3-3-3-----------------------------------------------|
|--3--3-3-3-3-3--3-3-3-3-3-----------------------------------------------|
|--3--3-3-3-3-3--1-1-1-1-1-----------------------------------------------|
|--1--1-1-1-1-1----------------------------------------------------------|
 Pm.  . . . . . 
 

|------------------------------------------------------------------------|
|------------------------------------------------------------------------|
|--3-3-3-3-3-3-3---------------------------------------------------------|
|--3-3-3-3-3-3-3----3-3-3----5-5-5---------------------------------------|
|--1-1-1-1-1-1-1----3-3-3----5-5-5---------------------------------------|
|-------------------1-1-1----3-3-3---------------------------------------|


|------------------------------------------------------------------------|
|------------------------------------------------------------------------|
|--3-3-3-3-3-3-3---------------------------------------------------------|
|--3-3-3-3-3-3-3----3-3-3----5-5-5---------------------------------------|
|--1-1-1-1-1-1-1----3-3-3----5-5-5---------------------------------------|
|-------------------1-1-1----3-3-3---------------------------------------|


|------------------------------------------------------------------------|
|--------------------------------------*---------------------------------|
|--3-3-3-3-3-3-3-----------------------3---------------------------------|
|--3-3-3-3-3-3-3----3-3-3----5-5-5-----3---------------------------------|
|--1-1-1-1-1-1-1----3-3-3----5-5-5---------------------------------------|
|-------------------1-1-1----3-3-3---------------------------------------|


 Think that's it.Any ? corrections e-mail at goingdown2die@yahoo.com
Comments