Michale Graves - Godzilla Chords & Tabs

 

Godzilla Chords & Tabs

Michale Graves Chords & Tabs

Version: 1 Type: Tab 0 ratings
1 star 2 stars 3 stars 4 stars 5 stars
comments

Godzilla Tab

Band:Michale Graves
Song:Godzilla
Album:Punk Rock Is Dead
Tab:Luis Alvarez




 Side 0/5   4times             1 time
|----------------------------------------------------------------------|
|-----------*----------------------------------------------------------|
|----*---*--5--*-------*-----------------------------------------------|
|----7---3--5--5-------7----7-7-7-7-7-7-7-7-7-7------------------------|
|----7---3--3--5-------7----7-7-7-7-7-7-7-7-7-7------------------------|
|--0/5---1-----3-------5----5-5-5-5-5-5-5-5-5-5------------------------|
            .  .    .   .   . . . . . . . . . . *=Let ring for a sec

 Or The single notes.They both sound right.Thrill the note a little
|----------------------------------------------------------------------|
|----------------------------------------------------------------------|
|----------------------------------------------------------------------|
|----------------------------------------------------------------------|
|----------3-----------------------------------------------------------|
|--0/5--1-----3--------------------------------------------------------|
    
    8times
|----------------------------------------------------------------------|
|----------------------------------------------------------------------|
|---7-7-7-7--3-3-3-3---------------------------------------------------|
|---7-7-7-7--3-3-3-3---5-5-5-5---7-7-7-7-------------------------------|
|---5-5-5-5--1-1-1-1---5-5-5-5---7-7-7-7-------------------------------|
|----------------------3-3-3-3---5-5-5-5-------------------------------|

[ Tab from: http://www.guitartabs.cc/tabs/m/michale_graves/godzilla_tab.html ]
        3times                     and on the 4th this          
|----------------------------------------------------------------------|
|-------------------*--------------------------------------------------|
|---*---------------7--7-7--7-7-7--------------------------------------|
|---5--5-5-5-5-5----7--7-7--7-7-7--------7--7-7-7-7--------------------|
|---5--5-5-5-5-5----5--5-5--5-5-5--------7--7-7-7-7--------------------|
|---3--3-3-3-3-3-------------------------5--5-5-5-5--------------------|
                                      pm .  . . . .*=Let ring for a sec

    
    8times
|----------------------------------------------------------------------|
|----------------------------------------------------------------------|
|---7-7-7-7--3-3-3-3---------------------------------------------------|
|---7-7-7-7--3-3-3-3---5-5-5-5---7-7-7-7-------------------------------|
|---5-5-5-5--1-1-1-1---5-5-5-5---7-7-7-7-------------------------------|
|----------------------3-3-3-3---5-5-5-5-------------------------------|



        3times                     and on the 4th this               
|----------------------------------------------------------------------|
|-------------------*--------------------------------------------------|
|---*---------------7--7-7--7-7-7--------------------------------------|
|---5--5-5-5-5-5----7--7-7--7-7-7--------7--7-7-7-7--------------------|
|---5--5-5-5-5-5----5--5--5-5-5-5--------7--7-7-7-7--------------------|
|---3--3-3-3-3-3-------------------------5--5-5-5-5--------------------|
                                      pm .  . . . .*=Let ring for a sec



    
    8times
|----------------------------------------------------------------------|
|----------------------------------------------------------------------|
|---7-7-7-7--3-3-3-3----------------------------*----------------------|
|---7-7-7-7--3-3-3-3---5-5-5-5---7-7-7-7--------7----------------------|
|---5-5-5-5--1-1-1-1---5-5-5-5---7-7-7-7--------7----------------------|
|----------------------3-3-3-3---5-5-5-5--------5----------------------|
                                                *=Let ring for a sec


 Think that's it.Any ? corrections e-mail at goingdown2die@yahoo.com

Comments