Michale Graves - Beware Chords & Tabs

 

Beware Chords & Tabs

Michale Graves Chords & Tabs

Version: 1 Type: Tab 0 ratings
1 star 2 stars 3 stars 4 stars 5 stars
comments

Beware Tab

     Song:Beware
     Artist:Michale Graves
     Album:Punk Rock Is Dead
     Tabbed By:Luis Alvarez
		



     Tablature Legend
     ----------------
     h   - hammer-on
     p   - pull-off
     b   - bend
     pb  - pre-bend
     r   - bend release (if no number after the r, then release immediately)
     / \  - slide into or out of (from/to "nowhere")
     s   - legato slide
     ~   - vibrato
     tr  - trill
     T   - tap
     TP  - trem. picking
     PM .  - palm muting
     *   -Let Ring
     


      Intro

       ____________3Times___________
      /                             \ 
     |-------------------------------|------------------------------|
     |-------------------------------|------------------------------|
     |-------------------------------|------------------------------|
     |--4--4-4-4-4-4-----------------|--6---------------------------|2times
     |--2--2-2-2-2-2----4--4-4-4-4-4-|--6---------------------------|
     |------------------2--2-2-2-2-2-|--4---------------------------| 
     pm .  . . . . .    .  . . . . .    *

      
       _____4Times____
      /               \
     |-----------------|--------------------------------------------|
     |-----------------|--------------------------------------------|
     |-----------------|--7-7-7-7-7---------------------------------|
     |--9-----6--6-6-6-|--7-7-7-7-7----6-6-6-6----------------------|2Times
     |--9-----6--6-6-6-|--5-5-5-5-5----6-6-6-6----------------------|
     |--7-0-0-4--4-4-4-|---------------4-4-4-4----------------------|



      Verse
       ____________3Times___________
      /                             \ 
     |-------------------------------|------------------------------|
     |-------------------------------|------------------------------|
     |-------------------------------|------------------------------|
     |--4--4-4-4-4-4-----------------|--6---------------------------|2times
     |--2--2-2-2-2-2----4--4-4-4-4-4-|--6---------------------------|
     |------------------2--2-2-2-2-2-|--4---------------------------| 
     pm .  . . . . .    .  . . . . .    *


[ Tab from: http://www.guitartabs.cc/tabs/m/michale_graves/beware_tab.html ]
        _____4Times____
      /               \
     |-----------------|--------------------------------------------|
     |-----------------|--------------------------------------------|
     |-----------------|--7-7-7-7-7---------------------------------|
     |--9-----6--6-6-6-|--7-7-7-7-7----6-6-6-6----------------------|2Times
     |--9-----6--6-6-6-|--5-5-5-5-5----6-6-6-6----------------------|
     |--7-0-0-4--4-4-4-|---------------4-4-4-4----------------------|



      Chorus
       ___________3Times____________
      /                             \
     |-------------------------------|------------------------------|
     |-------------------------------|------------------------------|
     |--8--8-8-8-8-8-----------------|------------------------------|
     |--8--8-8-8-8-8----8--8-8-8-8-8-|--6--6-6-6-6-6----------------|2Times
     |--6--6-6-6-6-6----8--8-8-8-8-8-|--6--6-6-6-6-6----------------|
     |------------------6--6-6-6-6-6-|--4--4-4-4-4-4----------------|
                                      Pm.  . . . . .

	
       _____4Times____
      /               \
      |-----------------|--------------------------------------------|
      |-----------------|--------------------------------------------|
      |-----------------|--7-7-7-7-7---------------------------------|
      |--9-----6--6-6-6-|--7-7-7-7-7----6-6-6-6----------------------|2Times
      |--9-----6--6-6-6-|--5-5-5-5-5----6-6-6-6----------------------|
      |--7-0-0-4--4-4-4-|---------------4-4-4-4----------------------|



       Outro
        ___________3Times____________
       /                             \
      |-------------------------------|------------------------------|
      |-------------------------------|------------------------------|
      |--8--8-8-8-8-8-----------------|------------------------------|
      |--8--8-8-8-8-8----8--8-8-8-8-8-|--6--6-6-6-6-6----------------|1Time
      |--6--6-6-6-6-6----8--8-8-8-8-8-|--6--6-6-6-6-6----------------|
      |------------------6--6-6-6-6-6-|--4--4-4-4-4-4----------------|
                                       Pm.  . . . . .

        _________3Times____________
       /                           \
      |-------------------------------|------------------------------|
      |-------------------------------|------------------------------|
      |--4--4-4-4-4-4-----------------|------------------------------|
      |--4--4-4-4-4-4----4--4-4-4-4-4-|--6--6-6-6-6-6-6-----9--------|1Time
      |--2--2-2-2-2-2----4--4-4-4-4-4-|--6--6-6-6-6-6-6-----9--------|
      |------------------2--2-2-2-2-2-|--4--4-4-4-4-4-4-----7--------|
	                               Pm.  . . . . . .     *

      This song is really easy.I tabbed it out so that you can just 
      flow through it.E-mail me at goingdown2die@yahoo.com If anyone
      has anything better or corrections.
      "How well I have learned that there is no fence  to sit on
      between heaven and hell. There is a deep, wide gulf,Chasm, And 
      in that chasm Is no place for any man."Johnny Cash
Comments