Michael Sweet - Jesus Chords & Tabs

 

Jesus Chords & Tabs

Michael Sweet Chords & Tabs

Version: 1 Type: Tab 0 ratings
1 star 2 stars 3 stars 4 stars 5 stars
comments

Jesus Tab

   
J.E.S.U.S
Recorded by Michael Sweet
MICHAEL SWEET
1994 Benson Music Group
www.michaelsweet.com

This is designed for someone who is familiar with the song.  This is intended to
be a road map to get you started.  For the solo, you're on your own!


Tabbed by: ted corby
 Email: tedcorby@yahoo.com
 Tuning: down 1/2 step

Riff 1 (always play twice)

 e|---------------------------------------------------------------------------| 
B|----------------------------------------------------------------------------| 
G|----------------------------------------------------------------------------| 
D|----------------------------------------------------------------------------| 
A|--2---------2---5---2------------------2---------5---2----------------------| 
E|-------5------------------5---2---5---------5-------------------------------| 

Riff 2

e|----------------------------------------------------------------------------| 
B|----------------------------------------------------------------------------| 
G|----------------------------------------------------------------------------| 
D|--9------9------9------9------------12---9----------------------------------| 
A|-----6------7------8------9---12--------------------------------------------| 
E|----------------------------------------------------------------------------| 

Pre-chorus
[ Tab from: http://www.guitartabs.cc/tabs/m/michael_sweet/jesus_tab.html ]
Before riff 1                        chords after riff 1
e|----------------------------------------------------------------------------| 
B|----------------------------------------------------------------------------| 
G|--7-----------9---------------------7----------9--------9-------------------| 
D|--7-----------7---------------------7----------7--------9-------------------| 
A|--7-----------7---------------------7----------7--------9-------------------| 
E|--5-----------5---------------------5----------5--------7--\0-0-0-0-0-0-0-0-| 




J.E.S.U.S.
Michael Sweet 
(John 3:16)

          intro:
		(B-A-B	B-A-B	E	B-A-B	B-A-B	A-E) X 2
		(Play the intro riff for the verses as well.)

			Verse 1
People come and go, but one thing I know 
Jesus never leaves you 
He's with you every day, just a prayer away 
He'll always see you through 

pre-chorus
You've heard the stories, 
You've heard the lies 
That Jesus died but He did not rise
 
riff 1
pre-chorus
I tell you man that He's alive and well 
Not a story sittin' on a shelf 
So take your money from the wishin' well 
And put your faith in Him 

A      E        B
J.E.S.U.S. means forgiveness 

All you've got to do is call on.....

A      E            B     A      E  
J.E.S.U.S. and He'll be there, there for you 

Verse 2
So if your down hearted, 
And you need your motor started 
Jesus is the fuel 
If your runnin' on empty, I'm tellin' it simply 
His love will keep you full
 
REPEAT PRE-CHORUS 
REPEAT CHORUS

Guitar solo with this:
E-D    E-D    RIFF 1
E-D   E-D     F#

INSTRUMENTS DROP OUT DRUMS AND VOCALS ONLY

RIFF 2…in between acapella chorus

PALM MUTE a B note several times and then chorus out.
Comments