Michael Learns To Rock - Someday Chords & Tabs

 

Someday Chords & Tabs

Michael Learns To Rock Chords & Tabs

Version: 1 Type: Tab 0 ratings
1 star 2 stars 3 stars 4 stars 5 stars
comments

Someday Tab

   
#----------------------------------PLEASE NOTE---------------------------------#
#This file is the author's own work and represents their interpretation of the #
#song. You may only use this file for private study, scholarship, or research. #
#------------------------------------------------------------------------------#

Date: Wed, 5 Nov 1997 11:38:09 -0800
From: OSWALD D'SOUZA 
Subject: Someday by Michael Learns To Rock


 MICHAEL LEARNS TO ROCK
 TITLE: "SOMEDAY"
 ALBUM: "PLAYED ON PEPPER"
 AUTHOUR: Jascha Richter

 Distortion Guitar for all parts execpt through the verses and
 bridge

 Key:
h   Hammer on
p   Pull off
/   Slide up
        \   Slide down
       ^( ) Bend to the note in ( )
X   Muted string(s)
        *   Natural Harmonic
       [ ]  Finger vibrato
~   Strum (strings indicated)


Intro:
   Bm    G  D    A  Bm      G    D  A     Bm     G  D   A   Em  
E ----------------------------------------------------------7---
B -------------3-2----------------------------------5-7-5-------
G --7-6-------4-------7-6-----------------7-6----4/7------------
D -----9-----5-----------9--7-5--------------9------------------
A /9--------5-------/9-----------5-7/9-7------------------------
E --------------------------------------------------------------

   G~     A
  -3-7\5-[5]---|
  -3-----------|
  -4-----------|
  -5-----------|
  -5-----------|
  -------------| 

Verse

 Riff A
  D       A
 -----3---------------------|
 -------3-------------------|
 ---------------------------|
 -----------2---------------|
 ---5-----0-----------------|
 -3-------------------------|

 Chorus:

 D5      A5 
 Someday someway
 B5       G5
 Together we will be baby
 D5          B5                     A5
 I will take and you will take your time

Chorus Riff:

 --------------------------|
 --------------------------|
 --------------7-----------|
 -----0-2h4p2--7-----------|
 -0h2----------5-----------|
 --------------------------|

  Riff A

  Chorus

Bridge:

 C
 The love we had together

Riff B
[ Tab from: http://www.guitartabs.cc/tabs/m/michael_learns_to_rock/someday_tab.html ]
 -3-2----------------------|
 -----3--------------------|
 -------4------------------|
 --------------------------|
 --------------------------|
 --------------------------|

 Riff B
 Riff C

 -2------------------------|
 ---3----------------------|
 -----4--------------------|
 -------4------------------|
 --------------------------|
 --------------------------|

     
Solo:

E --------------------------------------------------------------
B ------------------------12------------------------------------
G --------------------7/11--11/7-7-9---7-6-7---X-X--------------
D ----------------7h9--------------------------X-X-9-7----------
A *5--------5h7/9------------------------------X-X-9---9-7\5-5--
E *5----5h7-----------------------------------------------------
                                                               
                                                                  
  -------10---12^(14)^12-10-10-10h12-12--10/12-7/9-[5]-------10-
  -10h12--------------------------------------------------------
  -------------------------------------------------------9h11---
  --------------------------------------------------------------
  --------------------------------------------------------------
  --------------------------------------------------------------
              Hold      Release 
              Bend      Bend 
  ----9--------------10-----------------------------------------
  -----------11^(12)----(12)^11\8-8--------------------7/9\7----
  11p9---11p9------------------------------------------7/9\7----
  ----------------------------------------7-7-7-7/9\7-----------
  --------------------------------------5-7-7-7-7/9\7-----------
  -----------------------------------5h7------------------------

  -14-17-14-19-14-14\12-12h14p12-----|
  ------------------------------15-15|
  -----------------------------------|
  -----------------------------------|
  -----------------------------------|
  -----------------------------------|

 End Of Solo


 Chorus (til' fade)


 Chord Dictionary:

     Bm  G  A  D  Em  C  Bb  D5  A5  B5  G5
E    2   3  0  2  0   0 1   X   X   X   X
B    3   3  2  3  0   1 3   X   X   X   X
G    4   4  2  2  0   0 3   7   X   4   X
D    4   5  2  0  2   2 3   7   7   4   5
A    2   5  0  0  2   3 1   5   7   2   5
E    2   3  0  X  0   0 1   X   5   X   3
Comments