Michael Learns To Rock - I'm Gonna Be Around Intro Chords & Tabs

 

I'm Gonna Be Around Intro Chords & Tabs

Michael Learns To Rock Chords & Tabs

Version: 1 Type: Chords 0 ratings
1 star 2 stars 3 stars 4 stars 5 stars
comments

I'm Gonna Be Around Intro Chords

   
#----------------------------------PLEASE NOTE---------------------------------#
#This file is the author's own work and represents their interpretation of the #
#song. You may only use this file for private study, scholarship, or research. #
#------------------------------------------------------------------------------#

Date: Mon, 23 Feb 1998 22:10:50 +0700
From: ken@yogya.wasantara.net.id
Subject: i'm gonna be around (michael learns to rock)


Michael Learns To Rock
I'M GONNA BE AROUND

intro
G --------3--------3-----------3-----------3------------------------1--0-------
B -----1-----1--------1-----1-----1-----1-----1---------1--0-----1-------------

C --------------0--------------------0---------------0--------2----------------
D -----------------------------------------------------------------------------
A ---3-------------------3----------------------2h3----------------------------
E -----------------------------------------------------------------------------
    Fmaj7                  G   C
G -----------------------------------------------------------------------------
B ----1--------------------3---1-----------------------------------------------
C ----2----\5--5--4--2--4--4---0-----------------------------------------------
D ----3--------------------5---------------------------------------------------
A -----------------------------------------------------------------------------
E -----------------------------------------------------------------------------

enjoy!!!!

Kresnoadji
ken@yogya.wasantara.net.id
Yogyakarta, INDONESIA

===========================================================================================================



*******************************************************************************
       This song is dedicated to KIMBERLEY D. HALASAN
*******************************************************************************

    COMPLICATED HEART
        by Michael Learns To Rock
        Transcribed by Leo Marco \"Cocoy\" L. Billones 
     e-mail:

Chords:
          EADGBe
 G        320033
 D        XX0323
 C        X32010
 A        X02220
 Dm       XX0231
 C/E      032010
 Csus2    032033
 Em add D 022033

 s = slide up
[ Tab from: http://www.guitartabs.cc/tabs/m/michael_learns_to_rock/im_gonna_be_around_intro_crd.html ]
 Intro:

 e|-----------------3--------------3-----3---2---3----3--||
 B|---1s3--1---1s3-----3---0--1--3----3--3---3---3----3--||
 G|------------------------0-------------2---2---0----0--||
 D|---2s4--2---2s4---------0--2--4-------0---0---0----2--||
 A|-------------------2---------------2----------2----3--||
 E|-----------------3--------------3-------------3-------||

*****************************************************************************
Enjoy!!!
I only figured out the tab of the Intro part. If you have any suggestions, 
please e-mail me at dartagnan-d@mailcity.com

I also dedicate this song to the ALLIANZ & all the Virgo St. Guys and Gals 
namely: Jangi, Joel, Mike, Rocky, Ron(2x),Jaja, Dione, Diane, Karen, 
Kring(2x), \"Jiboy\", Dodong, Owing, Sheryl and of course, Kimberley
*****************************************************************************

Song   : Nothing To Lose 
 Artist : Michael Learns To Rock
 Album  : Nothing To Lose 

        I just wish the tabbing is right and let me know any corrections/suggestions.
        I've employed the following chords to my convenience and which made me feel sounded correctly at its place.

 Chords:
           e A D G B e
 Bb      : x x 3 3 3 1 
 Bb(2)   : x 8 8 7 6 6 
 Bbsus4  : x 8 8 8 6 6 
 B       : x x 4 4 4 2
 Cm      : x 3 5 5 4 3
 C#      : x x 3 1 2 1 
 D#      : x x 5 3 4 3 
 D#m     : x x 4 3 4 1
 E       : x 7 6 4 5 4 
 Emaj7   : x 7 6 4 4 4 
 F       : x 3 3 2 1 1 
 Fm      : x x 3 1 1 1
 F#      : x 4 4 3 2 2
 G       : x 5 5 4 3 3
 Gsus4   : x 5 5 5 3 3
 G#      : x 6 6 5 4 4
 G#sus4  : x 6 6 6 4 4
 G#m6    : x x 3 1 0 1 
    or   : x x 6 4 6 x (u may use w.e. is convenient to u)
 G#m6(2) : x x 3 4 4 4 


Nishant Somani
nishantsomani@hotmail.com

=================================================================================================================
Song   : Romantic Balcony 
 Artist : Michael Learns To Rock
 Album  : Nothing To Lose


 Chords:
        e A D G B e
 Bb  :  x x 3 3 3 1
 C   :  x x 5 5 5 3
 Cm  :  x 3 5 5 4 3
 Gm  :  x 5 5 3 3 3
 D   :  x 5 4 2 3 2
 F   :  x 3 3 2 1 1 

*****************************************************************************************************************
Comments