Michael Jackson - Smooth Criminal Chords & Tabs

 

Smooth Criminal Chords & Tabs

Michael Jackson Chords & Tabs

Version: 1 Type: Bass Tab 0 ratings
1 star 2 stars 3 stars 4 stars 5 stars
comments

Smooth Criminal Bass Tab

Michael Jackson - Smooth Criminal - Bass Tab

This is imported from the alien ant farm section

This is the verse.

G|------------------------|
D|------------------------|
A|---------2-0h2-33-3-2---|
E|-555-3h5--------------3-|

Then he plays this right before the chorus

G|---------------|
D|---------------|
A|---------------|
E|-11-1-0--0-3-5-|
[ Tab from: http://www.guitartabs.cc/tabs/m/michael_jackson/smooth_criminal_btab.html ]
"Annie are you ok, but your jealous" kind of a bridge there

He plays basically the same pattern as the pre-chorus for that. Just listen to figure it out.

The Chorus goes like this.

G|--------------------|
D|--------3----3----5-|
A|--------------------|
E|-1-1-0h1--0h1--0h3--|
           
Repeats itself until "you've been hit by..."
which is just 

G|--------|
D|--------|
A|--------|
E|-00--00-|
and then it goes back to the verse
Comments