Michael Jackson - Earth Song Chords & Tabs

 

Earth Song Chords & Tabs

Michael Jackson Chords & Tabs

Version: 1 Type: Bass Tab 0 ratings
1 star 2 stars 3 stars 4 stars 5 stars
comments

Earth Song Bass Tab

-------------------------------------------------------------------------------
			     EARTH SONG - Michael Jackson
-------------------------------------------------------------------------------

By:Mark Aranha

TUNING 
1/2 step down


Might be variations here n there but the skeleton looks about right

VERSE
G|---------------------------------------------------------------------------|
D|--7------7------7----------------------------------------------------------|
A|-----5------5------5----7--------------------------------------------------|
E|---------------------------------------------------------------------------|

G|---------------------------------------------------------------------------|
D|--7------7------7----------------------------------------------------------|
A|-----5------5------5-------------------------------------------------------|
E|------------------------0--------------------------------------------------|
[ Tab from: http://www.guitartabs.cc/tabs/m/michael_jackson/earth_song_btab.html ]
G|----------------------------|------------------------------------------------|
D|----------------------------|------------------------------------------------|
A|--8--10---------------------|------5-----------------7-----------------------|
E|---------8----7-5-----------|------------------------------------------------|


CHORUS: For transpose play 2 frets up
G|-----------------|---------------|    
D|-----------------|--s7-----------|    
A|-------3---5-----|------7-b6-s5--|x3  
E|---5-------------|---------------|    

and end with..
G|-----------------------------------------|
D|-----------------------------------------|
A|5p3----3---5------------7----------------|
E|----5------------------------------------|



BRIDGE
G|---------------------------------------------------------------------------|
D|----------------/5\--------------/7\---------------------------------------|
A|---5-------------------------------------5----5-5---------7-7~-------------|
E|------(5s4s)3-----------8---7-5--------------------------------------------|

REST OF THE SONG
Play the Chorus transposed up 2 frets (in the key of Bm) over n over again until
you drop dead with boredom or the song finally ends.. whichever happens first


===============================================================================
Comments