Michael Jackson - Billie Jean Chords & Tabs

 

Billie Jean Chords & Tabs

Michael Jackson Chords & Tabs

Version: 1 Type: Tab 0 ratings
1 star 2 stars 3 stars 4 stars 5 stars
comments

Billie Jean Tab

   
This is my first tab 
listen to song for rythm and timing



E---2----------4-----5---4-----------------------------
B---2----------4-----5---4-----------------------------
G---2----------4-----6---4-----------------------------
D------------------------------------------------------
A------------------------------------------------------     
E------------------------------------------------------ 
           play however many times needed
[ Tab from: http://www.guitartabs.cc/tabs/m/michael_jackson/billie_jean_tab.html ]
E----7-7-7-7-7-7-7-7------------------------------------
B----7-7-7-7-7-7-7-7------------------------------------
G----7-7-7-7-7-7-7-7------------------------------------
D-------------------------------------------------------
A-------------------------------------------------------
E-------------------------------------------------------


          chord D
E-----2-2-2-2-2-2-2-2-------2-2-2-2-2-2-2-2----------------
B-----3-3-3-3-3-3-3-3-------2-2-2-2-2-2-2-2----------------
G-----2-2-2-2-2-2-2-2-------2-2-2-2-2-2-2-2----------------
D-----0-0-0-0-0-0-0-0-------------------------------------- 
A----------------------------------------------------------
E----------------------------------------------------------

        Repeat this however many times needed    


E------------------------------
B------------------------------
G------------------------------
D----4--2-4-2------------------
A-----4------4-2---------------  This is the bass line on guitar      
E----------------5-------------
Comments