Michael Jackson - Billie Jean Chords & Tabs

 

Billie Jean Chords & Tabs

Michael Jackson Chords & Tabs

Version: 2 Type: Bass Tab 0 ratings
1 star 2 stars 3 stars 4 stars 5 stars
comments

Billie Jean Bass Tab

Tabbed by: cmagnin@andover.edu
	Email me about corrections and such or tabs you would like done. If I like that song to I’ll tab it other wise I won;t
Note: this is my first tab but I think its pretty accurate….pretty simple, moderately fast…listen to the song for timing. Bass comes in after drums.

Main Riff
G-----------------------------------]
D-----------------------------------]	
A---5-0-3-5-3--------------------]
E----------------5-3-5-------------]
[ Tab from: http://www.guitartabs.cc/tabs/m/michael_jackson/billie_jean_btab_ver_2.html ]
Alternate riff
G-------------------------]
D----5-0-3-5-------------]
A------------------5-3-5-]   x2
E--------------------------]

Pre Chorus
G---------------------------------]
D----------------3-x-5-----------]
A—5---5-5—5-----------------]        x3
E------------------------3-3-----]

Through in a bunch of 5’s on the A string for transition

Listen to the song and figure out where each riff goes and when...it should be obvious play transition after every pre chorus and the Alt. Riff is always played x2 and the Pre Chorus is always played x3. 
Comments