Michael Jackson - Beat It Chords & Tabs

 

Beat It Chords & Tabs

Michael Jackson Chords & Tabs

Version: 4 Type: Bass Tab 0 ratings
1 star 2 stars 3 stars 4 stars 5 stars
comments

Beat It Bass Tab

   
Micheal Jackson - Beat it

Please enjoy and rate.

.=staccato note

Intro
G|--------11-8-10-8-------------11-8-10-8---|
D|------8----------11-11------8-----------11|  Twice
A|----9---------------------9---------------|
E|-11--------------------11-----------------|
                    .  .                   .

  When the Vocals start
Verse
G|----------------------------------------------------------|
D|----------------------------------------------------------|  Twice
A|----------------------------------------------------------|
E|-11-11-11-9-9-9-11-11-11-9-9-9-7-7-7-9-9-9-11-11-11-9-9-9-|
    .  .  . . . .  .  .  . . . . . . . . . .  .  .  . . . .

Chorus
G|--------11-8-10-8-------------11-8-10-8---|
D|------8----------11-11------8-----------11|  Three Times
A|----9---------------------9---------------|
E|-11--------------------11-----------------|
                    .  .                   .
[ Tab from: http://www.guitartabs.cc/tabs/m/michael_jackson/beat_it_btab_ver_4.html ]
Verse
G|----------------------------------------------------------|
D|----------------------------------------------------------|  Twice
A|----------------------------------------------------------|
E|-11-11-11-9-9-9-11-11-11-9-9-9-7-7-7-9-9-9-11-11-11-9-9-9-|
    .  .  . . . .  .  .  . . . . . . . . . .  .  .  . . . .

Chorus
G|--------11-8-10-8-------------11-8-10-8---|
D|------8----------11-11------8-----------11|  Four Times
A|----9---------------------9---------------|
E|-11--------------------11-----------------|
                    .  .                   .

Bridge
G|--------------------|
D|--------------------|  Eight Times
A|--------------------|
E|-11-11-11--11-11-11-|
    .  .  .   .  .  . 

Solo
G|----------------------------------------------------------|
D|----------------------------------------------------------|  Twice
A|----------------------------------------------------------|
E|-11-11-11-9-9-9-11-11-11-9-9-9-7-7-7-9-9-9-11-11-11-9-9-9-|
    .  .  . . . .  .  .  . . . . . . . . . .  .  .  . . . .

Outro
G|--------11-8-10-8-------------11-8-10-8---|
D|------8----------11-11------8-----------11|  Eight Times or untill the
A|----9---------------------9---------------|          song ends
E|-11--------------------11-----------------|
                    .  .                   .
Comments